PrimaNota.ru - самый крупный в мире бесплатный архив песенных текстов, аккордов, табулатур и нот


Antifreeze - Birthday Weekend - таба, видео

Регистрация Запомнить меня
Войти через:  Facebook Google Twitter Vk Yandex Mail.ru

Antifreeze - Birthday Weekend - таба, видео

Печатать
Просмотров: 147
This is an unreleased track by ANTIFREEZE and I couldn't find this tab
anywhere, so I figured that I'd attempt to tab it out.  It's on the
Kung fu Records CD Compilation: Punk Rock is Your Friend
www.antifreezemusic.com/ www.kungfurecords.com
BY:  Rob (freeskier20@hotmail.com) 

-----------------------------------------------------------
		ANTIFREEZE—Birthday Weekend
-----------------------------------------------------------
Guitar 1  (intro & chorus)
e|--------------------------------------------------------|
B|--------------------------------------------------------|
G|-4-4-4-6-6-8-8-8-8-8-6-6-6-8-8-9-9-9-9-9--9-8-4-4-4-4-4-|
D|-x-x-x-x-x-x-x-x-x-x-x-x-x-x-x-x-x-x-x-x-x-x-x-x-x-x-x-x|
A|-2-2-2-4-4-6-6-6-6-6-4-4-4-6-6-7-7-7-7-7--7-6-2-2-2-2-2-|
E|--------------------------------------------------------|

Guitar 1 (cont'd) Intro & chorus cont'd) (after 1st time repeat again.)
e|---------|
B|---------|
G|-9-8-4-6-|
D|-x-x-x-x-|
A|-7-6-2-4-|
E|---------|

Guitar 2 (come in after 1st time)
e|---------------------------------------------|
B|---------------------------------------------|
G|-444444444-----------666666666---------------|
D|-444444444-444444444-xxxxxxxxx-222222222-----|
A|-222222222-444444444-444444444-222222222-----|
E|-----------222222222-----------000000000-----|

Guitar 2 (verse)
e|---------------------------------------------|
B|---------------------------------------------|
G|-444444444-----------666666666---------------|
D|-444444444-444444444-xxxxxxxxx-222222222-----|
A|-222222222-444444444-444444444-222222222-----|
E|-----------222222222-----------000000000-----|
   pm-pm-pm-pm-pm-pm-pm-pm-pm-pm-pm-pm-pm-pm-pm






Guitars 1 & 2  (prechorus)
e|--------------------------------------------------------|
B|--------------------------------------------------------|
G|-66666-66666-------------44444-44444-88888-88888-44444--|
D|-xxxxx-xxxxx-22222-22222-xxxxx-xxxxx-xxxxx-xxxxx-xxxxx--|
A|-44444-44444-22222-22222-22222-22222-66666-66666-22222--|
E|-------------00000-00000--------------------------------|

Guitar 1					Guitar 2
e|-----------------------|	e|-------------------------|
B|-----------------------|	B|-------------------------|
G|-44444-33333-33333-----|	G|-------------------------|
D|-xxxxx-xxxxx-xxxxx-----|	D|-22222-22222-22222-22222-|
A|-22222-11111-11111-----|	A|-22222-22222-22222-22222-|
E|-----------------------|	E|-00000-00000-00000-00000-|

(The 1st time you do this, you will do it once, otherwise just listen for the amount of times it is on the CD)
Guitar 1				Guitar 2
e|--------------|			e|---------|			
B|--------------|			B|---------|
G|-13~-15~-16~--|			G|---------|
D|-xx—-xx--xx---|			D|-6~-4~-2~|
A|-11~-13~-14~--|			A|-6~-4~-2~|
E|--------------|			E|-4~-2~-0~|

Guitar 1
e|--------------------------------------------------------|
B|--------------------------------------------------------|
G|-4-4-4-6-6-8-8-8-8-8-6-6-6-8-8-9-9-9-9-9--9-8-4-4-4-4-4-|
D|-x-x-x-x-x-x-x-x-x-x-x-x-x-x-x-x-x-x-x-x-x-x-x-x-x-x-x-x|
A|-2-2-2-4-4-6-6-6-6-6-4-4-4-6-6-7-7-7-7-7--7-6-2-2-2-2-2-|
E|--------------------------------------------------------|

e|---------|
B|---------|
G|-9-8-4-6-|
D|-x-x-x-x-|
A|-7-6-2-4-|
E|---------|
Guitar 2
e|---------------------------------------------|
B|---------------------------------------------|
G|-444444444-----------666666666---------------|
D|-444444444-444444444-xxxxxxxxx-222222222-----|
A|-222222222-444444444-444444444-222222222-----|
E|-----------222222222-----------000000000-----|

Guitar 2 (verse 2)
e|---------------------------------------------|
B|---------------------------------------------|
G|-444444444-----------666666666---------------|
D|-444444444-444444444-xxxxxxxxx-222222222-----|
A|-222222222-444444444-444444444-222222222-----|
E|-----------222222222-----------000000000-----|
   pm-pm-pm-pm-pm-pm-pm-pm-pm-pm-pm-pm-pm-pm-pm

Guitars 1 & 2  (prechorus)
e|--------------------------------------------------------|
B|--------------------------------------------------------|
G|-66666-66666-------------44444-44444-88888-88888-44444--|
D|-xxxxx-xxxxx-22222-22222-xxxxx-xxxxx-xxxxx-xxxxx-xxxxx--|
A|-44444-44444-22222-22222-22222-22222-66666-66666-22222--|
E|-------------00000-00000--------------------------------|

Guitar 1					Guitar 2
e|-----------------------|	e|-------------------------|
B|-----------------------|	B|-------------------------|
G|-44444-33333-33333-----|	G|-------------------------|
D|-xxxxx-xxxxx-xxxxx-----|	D|-22222-22222-22222-22222-|
A|-22222-11111-11111-----|	A|-22222-22222-22222-22222-|
E|-----------------------|	E|-00000-00000-00000-00000-|

Guitar 1				Guitar 2
e|--------------|				e|---------|			
B|--------------|				B|---------|
G|-13~-15~-16~--|	(do once)		G|---------|	(do once)
D|-xx—-xx--xx---|				D|-6~-4~-2~|
A|-11~-13~-14~--|				A|-6~-4~-2~|
E|--------------|				E|-4~-2~-0~|

(BRIDGE)
Guitar 1				Guitar 2
e|------------------|	e|--------------------|
B|------------------|	B|--------------------|
G|-4~-------4~------|	G|-8~-6~-4~--8~-6~-4~-|
D|-4~-4~-2~-4~-4~-2~|	D|-x—-x—-x---x—-x—-x--|
A|-2~-4~-2~-2~-4~-2~|	A|-6~-4~-2~--6~-4~-2~-|
E|----2~-0~----2~-0~|	E|--------------------|





Guitar 1				Guitar 2
e|---------------|		e|----------------|
B|---------------|		B|----------------|
G|-8~-6~-4~-3~-4~|		G|----------------|
D|-x—-x—-x—-x—-x-|		D|-6~-4~-6~-4~-2~-|
A|-6~-4~-2~-1~-2~|		A|-6~-4~-6~-4~-2~-|
E|---------------|		E|-4~-2~-4~-2~-0~-|


Guitar 1 Solo
I couldn't figure it out but feel free to add it in if you want to.

Guitar 2  (during guitar 1's solo)
e|--------------------------------------------------|
B|--------------------------------------------------|
G|-6~-----------444444444---------------------------|
D|-x—-222222222-444444444-444444444—-6~-4~-6~-4~-2~-|
A|-4~-222222222-222222222-444444444—-6~-4~-6~-4~-2~-|
E|----000000000-----------222222222—-4~-2~-4~-2~-0~-|

BRIDGE 2
Guitar 1
e|--------------------------------------------------------|
B|--------------------------------------------------------|
G|-666666666-8-9999-111111111111111111—88888-9------------|
D|-xxxxxxxxx-x-xxxx—-x—x—x-x-x-x-x-x-x—xxxxx-x------------|
A|-444444444-6-7777—-9-9-9-9-9-9-9-9-9-66666-7------------|
E|--------------------------------------------------------|
Guitar 1 (cont'd)
e|--------------------------------------------------------|
B|--------------------------------------------------------|
G|-111111111111111111-121212121212121212131313131313131313|
D|--x-x-x-x-x-x-x-x-x—-x-x-x-x-x-x-x-x-x-x-x-x-x-x-x-x-x-x|
A|--9-9-9-9-9-9-9-9-9-101010101010101010111111111111111111|
E|--------------------------------------------------------|
Guitar 1 (cont'd)
e|--------------------|		
B|--------------------|		
G|-151515151515151515-|		
D|--x-x-x-x-x-x-x-x-x-|		
A|-131313131313131313-|		
E|--------------------|	




Guitar 1 (cont'd)				
e|---------|				
B|---------|				
G|-8~-6~-4~|				
D|-x—-x—-x—|				
A|-6~-4~-2~|				
E|---------|				

BRIDGE 2
Guitar 1
e|--------------------------------------------------------|
B|--------------------------------------------------------|
G|-666666666-8-9999-111111111111111111—88888-9------------|
D|-xxxxxxxxx-x-xxxx—-x—x—x-x-x-x-x-x-x—xxxxx-x------------|
A|-444444444-6-7777—-9-9-9-9-9-9-9-9-9-66666-7------------|
E|--------------------------------------------------------|
Guitar 1 (cont'd)
e|--------------------------------------------------------|
B|--------------------------------------------------------|
G|-111111111111111111-121212121212121212131313131313131313|
D|--x-x-x-x-x-x-x-x-x—-x-x-x-x-x-x-x-x-x-x-x-x-x-x-x-x-x-x|
A|--9-9-9-9-9-9-9-9-9-101010101010101010111111111111111111|
E|--------------------------------------------------------|
Guitar 1 (cont'd)
e|--------------------|		
B|--------------------|		
G|-151515151515151515-|		
D|--x-x-x-x-x-x-x-x-x-|		
A|-131313131313131313-|		
E|--------------------|	
Guitar 1 (cont'd)				
e|---------|				
B|---------|				
G|-8~-6~-4~|				
D|-x—-x—-x—|				
A|-6~-4~-2~|				
E|---------|
BRIDGE 2  (GUITAR 2 PART)	Play this part as many times as needed.
e|--------------------------------------------------|
B|--------------------------------------------------|
G|-6~-----------444444444---------------------------|
D|-x—-222222222-444444444-444444444—-22222-44444----|
A|-4~-222222222-222222222-444444444—-22222-44444----|
E|----000000000-----------222222222—-00000-22222----|
Guitar 2 (cont'd)
e|----------|
B|----------|
G|----------|
D|-6~-4~-2~-|
A|-6~-4~-2~-|
E|-4~-2~-0~-|

BRIDGE 2  (GUITAR 2 PART)	Play this part as many times as needed.
e|--------------------------------------------------|
B|--------------------------------------------------|
G|-6~-----------444444444---------------------------|
D|-x—-222222222-444444444-444444444—-22222-44444----|
A|-4~-222222222-222222222-444444444—-22222-44444----|
E|----000000000-----------222222222—-00000-22222----|
Guitar 2 (cont'd)
e|----------|
B|----------|
G|----------|
D|-6~-4~-2~-|
A|-6~-4~-2~-|
E|-4~-2~-0~-|
Guitar 1				Guitar 2
e|------------------|	e|--------------------|
B|------------------|	B|--------------------|
G|-4~-------4~------|	G|-8~-6~-4~--8~-6~-4~-|
D|-4~-4~-2~-4~-4~-2~|	D|-x—-x—-x---x—-x—-x--|
A|-2~-4~-2~-2~-4~-2~|	A|-6~-4~-2~--6~-4~-2~-|
E|----2~-0~----2~-0~|	E|--------------------|
Guitar 1				Guitar 2
e|---------------|		e|----------------|
B|---------------|		B|----------------|
G|-8~-6~-4~-3~-4~|		G|----------------|
D|-x—-x—-x—-x—-x-|		D|-6~-4~-6~-4~-2~-|
A|-6~-4~-2~-1~-2~|		A|-6~-4~-6~-4~-2~-|
E|---------------|		E|-4~-2~-4~-2~-0~-|
Guitar 1  Play twice
e|--------------------------------------------------------|
B|--------------------------------------------------------|
G|-4-4-4-6-6-8-8-8-8-8-6-6-6-8-8-9-9-9-9-9--9-8-4-4-4-4-4-|
D|-x-x-x-x-x-x-x-x-x-x-x-x-x-x-x-x-x-x-x-x-x-x-x-x-x-x-x-x|
A|-2-2-2-4-4-6-6-6-6-6-4-4-4-6-6-7-7-7-7-7--7-6-2-2-2-2-2-|
E|--------------------------------------------------------|
Guitar 1 
e|---------|
B|---------|
G|-9-8-4-6-|
D|-x-x-x-x-|
A|-7-6-2-4-|
E|---------|




Guitar 2 		Play twice also
e|---------------------------------------------|
B|---------------------------------------------|
G|-444444444-----------666666666---------------|
D|-444444444-444444444-xxxxxxxxx-222222222-----|
A|-222222222-444444444-444444444-222222222-----|
E|-----------222222222-----------000000000-----|

Phew!!! That took forever.
Questions,comments, corrections, and suggestions are all welcome!
Later dudes!  Enjoy!
Добавлено: 07.03.2012
Другие материалы по этой песне:
  • Аккорды и текст

Страница создана 07.03.2012
http://primanota.ru/antifreeze/birthday-weekend-chords.htm
Привет, Гость.
Предлагаем пройти революционный курс по гитаре.
Подарок от PrimaNota.Ru, забирай!