PrimaNota.ru - самый крупный в мире бесплатный архив песенных текстов, аккордов, табулатур и нот


Antidote - I Dont Care - таба, видео

Регистрация Запомнить меня
Войти через:  Facebook Google Twitter Vk Yandex Mail.ru

Antidote - I Dont Care - таба, видео

Печатать
Просмотров: 147
-------------------------------------------------------------------------------
I Don't Care - Antidote
My Life
-------------------------------------------------------------------------------
Tabbed by: axeslash
E-mail: holmzito@yahoo.com

Tuning: Standard for both Guitars

Guitar 1:
e|--------------------------------------------------------------------|
B|--------------------------------------------------------------------|
G|-5--5---------------------------------------------------------------|
D|-5--5-(hold chord for the remaining duration of two bars)-----------|
A|-3--3---------------------------------------------------------------|
E|--------------------------------------------------------------------|

Rest for 2 bars

Guitars 1 & 2:
e|--------------------------------------------------------------------|
B|--------------------------------------------------------------------|
G|-5--5---------------------------------------------------------------|
D|-5--5-(hold chord for the remaining duration of two bars)-----------|
A|-3--3---------------------------------------------------------------|
E|--------------------------------------------------------------------|

Guitars 1 & 2:
e|---------------------------------------------------------|
B|---------------------------------------------------------|
G|-5--5--5-5-5-5-5--5--5-5-5-5-----------------------------|
D|-5--5--5-5-5-5-5--5--5-5-5-5-6--6--6-6-6-6-5--5--5-5-5-5-|
A|-3--3--3-3-3-3-3--3--3-3-3-3-6--6--6-6-6-6-5--5--5-5-5-5-|
E|-----------------------------4--4--4-4-4-4-3--3--3-3-3-3-|

Guitars 1 & 2:
e|-----------------------------------------------------|
B|-----------------------------------------------------|
G|-5--5--5-5-5-5-5--5--5-5-5-5-------------------------|
D|-5--5--5-5-5-5-5--5--5-5-5-5-6--X-X-X-X-X-X-5--------|
A|-3--3--3-3-3-3-3--3--3-3-3-3-6--X-X-X-X-X-X-5--------|
E|-----------------------------4--X-X-X-X-X-X-3--------|

Guitars 1 & 2:
e|-------------------------------------------------|
B|-------------------------------------------------|
G|-5--5--5--5--5--5--5--5--------------------------|
D|-5--5--5--5--5--5--5--5--6--6--6--6--5--5--5--5--|
A|-3--3--3--3--3--3--3--3--6--6--6--6--5--5--5--5--|
E|-------------------------4--4--4--4--3--3--3--3--| x4

Guitars 1 & 2:
e|-------------------------------------------------|
B|-------------------------------------------------|
G|-8--8--8--8--8--8--8--8--------------------------|
D|-8--8--8--8--8--8--8--8--8--8--8--8--8--8--8--8--|
A|-6--6--6--6--6--6--6--6--8--8--8--8--8--8--8--8--|
E|-------------------------6--6--6--6--6--6--6--6--|

Guitar 1:
e|---------------------------------------------------------|
B|---------------------------------------------------------|
G|---------------------------------------------------------|
D|-10--10--10--10--10--10--10--10--6--6--6--6--6--6--6--6--|
A|-10--10--10--10--10--10--10--10--6--6--6--6--6--6--6--6--|
E|--8---8---8---8---8---8---8---8--4--4--4--4--4--4--4--4--|
Guitar 2:
e|---------------------------------------------------------|
B|---------------------------------------------------------|
G|---------------------------------------------4--5--6--7--|
D|-10--10--10--10--10--10--10--10--6--6--6--6--4--5--6--7--|
A|-10--10--10--10--10--10--10--10--6--6--6--6--2--3--4--5--|
E|--8---8---8---8---8---8---8---8--4--4--4--4--------------|

Guitars 1 & 2:
e|-------------------------------------------------|
B|-------------------------------------------------|
G|-8--8--8--8--8--8--8--8--------------------------|
D|-8--8--8--8--8--8--8--8--8--8--8--8--8--8--8--8--|
A|-6--6--6--6--6--6--6--6--8--8--8--8--8--8--8--8--|
E|-------------------------6--6--6--6--6--6--6--6--|

Guitars 1 & 2:
e|---------------------------------------------------------|
B|---------------------------------------------------------|
G|---------------------------------------------------------|
D|-10--10--10--10--10--10--10--10--6--6--6--6--5--5--5--5--|
A|-10--10--10--10--10--10--10--10--6--6--6--6--5--5--5--5--|
E|--8---8---8---8---8---8---8---8--4--4--4--4--3--3--3--3--|

Guitars 1 & 2:
e|---------------------------------------------------------|
B|---------------------------------------------------------|
G|-5--5--5-5-5-5-5--5--5-5-5-5-----------------------------|
D|-5--5--5-5-5-5-5--5--5-5-5-5-6--6--6-6-6-6-5--5--5-5-5-5-|
A|-3--3--3-3-3-3-3--3--3-3-3-3-6--6--6-6-6-6-5--5--5-5-5-5-|
E|-----------------------------4--4--4-4-4-4-3--3--3-3-3-3-|

Guitars 1 & 2:
e|-----------------------------------------------------|
B|-----------------------------------------------------|
G|-5--5--5-5-5-5-5--5--5-5-5-5-------------------------|
D|-5--5--5-5-5-5-5--5--5-5-5-5-6--X-X-X-X-X-X-5--------|
A|-3--3--3-3-3-3-3--3--3-3-3-3-6--X-X-X-X-X-X-5--------|
E|-----------------------------4--X-X-X-X-X-X-3--------|

Guitars 1 & 2:
e|-------------------------------------------------|
B|-------------------------------------------------|
G|-5--5--5--5--5--5--5--5--------------------------|
D|-5--5--5--5--5--5--5--5--6--6--6--6--5--5--5--5--|
A|-3--3--3--3--3--3--3--3--6--6--6--6--5--5--5--5--|
E|-------------------------4--4--4--4--3--3--3--3--| x4

Guitars 1 & 2:
e|-------------------------------------------------|
B|-------------------------------------------------|
G|-8--8--8--8--8--8--8--8--------------------------|
D|-8--8--8--8--8--8--8--8--8--8--8--8--8--8--8--8--|
A|-6--6--6--6--6--6--6--6--8--8--8--8--8--8--8--8--|
E|-------------------------6--6--6--6--6--6--6--6--|

Guitar 1:
e|---------------------------------------------------------|
B|---------------------------------------------------------|
G|---------------------------------------------------------|
D|-10--10--10--10--10--10--10--10--6--6--6--6--6--6--6--6--|
A|-10--10--10--10--10--10--10--10--6--6--6--6--6--6--6--6--|
E|--8---8---8---8---8---8---8---8--4--4--4--4--4--4--4--4--|
Guitar 2:
e|---------------------------------------------------------|
B|---------------------------------------------------------|
G|---------------------------------------------4--5--6--7--|
D|-10--10--10--10--10--10--10--10--6--6--6--6--4--5--6--7--|
A|-10--10--10--10--10--10--10--10--6--6--6--6--2--3--4--5--|
E|--8---8---8---8---8---8---8---8--4--4--4--4--------------|

Guitars 1 & 2:
e|-------------------------------------------------|
B|-------------------------------------------------|
G|-8--8--8--8--8--8--8--8--------------------------|
D|-8--8--8--8--8--8--8--8--8--8--8--8--8--8--8--8--|
A|-6--6--6--6--6--6--6--6--8--8--8--8--8--8--8--8--|
E|-------------------------6--6--6--6--6--6--6--6--|

Guitars 1 & 2:
e|---------------------------------------------------------|
B|---------------------------------------------------------|
G|---------------------------------------------------------|
D|-10--10--10--10--10--10--10--10--6--6--6--6--5--5--5--5--|
A|-10--10--10--10--10--10--10--10--6--6--6--6--5--5--5--5--|
E|--8---8---8---8---8---8---8---8--4--4--4--4--3--3--3--3--|

Guitars 1 & 2:
e|------------------------------------------------------|
B|------------------------------------------------------|
G|-5--5--5-5-5-5-5--5--5-5-5-5--------------------------|
D|-5--5--5-5-5-5-5--5--5-5-5-5-5--5--5-5-5-5-6--X-8-----|
A|-3--3--3-3-3-3-3--3--3-3-3-3-5--5--5-5-5-5-6--X-8-----|
E|-----------------------------3--3--3-3-3-3-4--X-6-----| x2

Guitar 1
e|------------------------------------------------------|
B|------------------------------------------------------|
G|-5--5--5-5-5-5-5--5--5-5-5-5--------------------------|
D|-5--5--5-5-5-5-5--5--5-5-5-5-5--5--5-5-5-5-6--X-8-----|
A|-3--3--3-3-3-3-3--3--3-3-3-3-5--5--5-5-5-5-6--X-8-----|
E|-----------------------------3--3--3-3-3-3-4--X-6-----|
Guitar 2:
e|/8--8--8--8--8--8--8--8--8--8--8--8--8--8--8--8--|
B|/8--8--8--8--8--8--8--8--8--8--8--8--8--8--8--8--|
G|-0--0--0--0--0--0--0--0--0--0--0--0--0--0--0--0--|
D|-------------------------------------------------|
A|-------------------------------------------------|
E|-------------------------------------------------|

Guitar 1
e|------------------------------------------------------|
B|------------------------------------------------------|
G|-5--5--5-5-5-5-5--5--5-5-5-5--------------------------|
D|-5--5--5-5-5-5-5--5--5-5-5-5-5--5--5-5-5-5-6--X-8-----|
A|-3--3--3-3-3-3-3--3--3-3-3-3-5--5--5-5-5-5-6--X-8-----|
E|-----------------------------3--3--3-3-3-3-4--X-6-----|
Guitar 2:
e|-8--8--8--8--8--8--8--8--8--8--8--8--8--8--8--8--|
B|-8--8--8--8--8--8--8--8--8--8--8--8--8--8--8--8--|
G|-0--0--0--0--0--0--0--0--0--0--0--0--0--0--0--0--|
D|-------------------------------------------------|
A|-------------------------------------------------|
E|-------------------------------------------------|

Guitars 1 & 2:
e|-------------------------------------------------|
B|-------------------------------------------------|
G|-8--8--8--8--8--8--8--8--------------------------|
D|-8--8--8--8--8--8--8--8--8--8--8--8--8--8--8--8--|
A|-6--6--6--6--6--6--6--6--8--8--8--8--8--8--8--8--|
E|-------------------------6--6--6--6--6--6--6--6--|

Guitar 1:
e|---------------------------------------------------------|
B|---------------------------------------------------------|
G|---------------------------------------------------------|
D|-10--10--10--10--10--10--10--10--6--6--6--6--6--6--6--6--|
A|-10--10--10--10--10--10--10--10--6--6--6--6--6--6--6--6--|
E|--8---8---8---8---8---8---8---8--4--4--4--4--4--4--4--4--|
Guitar 2:
e|---------------------------------------------------------|
B|---------------------------------------------------------|
G|---------------------------------------------4--5--6--7--|
D|-10--10--10--10--10--10--10--10--6--6--6--6--4--5--6--7--|
A|-10--10--10--10--10--10--10--10--6--6--6--6--2--3--4--5--|
E|--8---8---8---8---8---8---8---8--4--4--4--4--------------|

Guitars 1 & 2:
e|-------------------------------------------------|
B|-------------------------------------------------|
G|-8--8--8--8--8--8--8--8--------------------------|
D|-8--8--8--8--8--8--8--8--8--8--8--8--8--8--8--8--|
A|-6--6--6--6--6--6--6--6--8--8--8--8--8--8--8--8--|
E|-------------------------6--6--6--6--6--6--6--6--|

Guitars 1 & 2:
e|--------------------------------------------------------------------------|
B|--------------------------------------------------------------------------|
G|---------------------------------------------------------5----------------|
D|-10--10--10--10--10--10--10--10--6--6--6--6--5--5--5--5--5----------------|
A|-10--10--10--10--10--10--10--10--6--6--6--6--5--5--5--5--3----------------|
E|--8---8---8---8---8---8---8---8--4--4--4--4--3--3--3--3-------------------|

************************************
| /   slide up
| X   Mute note
************************************
Добавлено: 09.09.2013
Другие материалы по этой песне:
  • Аккорды и текст

Страница создана 09.09.2013
http://primanota.ru/antidote/i-dont-care-chords.htm
Привет, Гость.
Предлагаем пройти революционный курс по гитаре.
Подарок от PrimaNota.Ru, забирай!