PrimaNota.ru - самый крупный в мире бесплатный архив песенных текстов, аккордов, табулатур и нот


Anti-Social - Song - таба, видео

Регистрация Запомнить меня
Войти через:  Facebook Google Twitter Vk Yandex Mail.ru

Anti-Social - Song - таба, видео

Печатать
Просмотров: 49
Author/Artist: Anti-Social
Transcribed by: Ian Smedbron
Email: kornhound@mail.com

-----0000-------0000-|-----------------|-----------------|-----------------|--|
-----3333-------3333-|-----------------|-----------------|-----------------|--|
---------------------|-----------------|-----------------|-----------------|--|
-5-3------5-3-4------|---6---6---6---8-|---6---6---4---2-|---6---0---4---0-|--|
-5-3------5-3-4------|-5---5---5---7---|-5---5---3---1---|-5---0---3---0---|--|
-3-1------3-1-2------|-----------------|-----------------|-----------------|--|
 Intro                 Verse

-----------------|--------------------------|---------------------------------|
-----------------|-----0000-----0000--------|---------------------------------|
-----------------|-----3333-----3333-----3b-|---------------------------------|
-----------------|-5-5------3-3------4-4----|-16-16-16-16-12-12-12-12---------|
-----5b------0-7b|-5-5------3-3------4-4----|-19-19-19-19-15-15-15-15---------|
-7-7-----3-3-----|-3-3------1-1------2-2----|---------------------------------|
 bridge           chorus                      outro/repeat

--------------------|---------------------------------------------------------|
--------------------|---------------------------------------------------------|
--------------------|---------------------------------------------------------|
--------------------|---------------------------------------------------------|
-6-6-6-6-9--9--9--9-|---------------------------------------------------------|
-9-9-9-9-12-12-12-12|---------------------------------------------------------|
Добавлено: 15.06.2016
Другие материалы по этой песне:
  • Аккорды и текст

Страница создана 15.06.2016
http://primanota.ru/anti-social-2/song-chords.htm
Привет, Гость.
Предлагаем пройти революционный курс по гитаре.
Подарок от PrimaNota.Ru, забирай!