PrimaNota.ru - самый крупный в мире бесплатный архив песенных текстов, аккордов, табулатур и нот


Anti-nowhere League - My Gods Bigger Than Yours - таба, видео

Регистрация Запомнить меня
Войти через:  Facebook Google Twitter Vk Yandex Mail.ru

Anti-nowhere League - My Gods Bigger Than Yours - таба, видео

Печатать
Просмотров: 105
Уроки эстрадного вокала в Санкт-Петербурге
-------------------------------------------------------------------------------
                My Gods Bigger Than Yours - Anti-Nowhere League
-------------------------------------------------------------------------------
Tabbed by: Ricky Thomson
E-mail: punkalert@gmail.com

Tuning: Standard


[intro/chorus]

pm[                               ]
 e|-------------------------------|
 B|-------------------------------|
 G|--------------5--5-5-----------|
 D|--2--2-5--5-5-5--5-5-7--7-7-7--|
 A|--2--2-5--5-5-3--3-3-7--7-7-7--|
 E|--0--0-3--3-3--------5--5-5-5--|



[verse]

pm[     . . .        . . . . . .  ]
 e|-------------------------------|
 B|-------------------------------|
 G|--5--5-5-5-7-------------------|
 D|--5--5-5-5-7-7--7-7-7-7-7-7-7--|
 A|--3--3-3-3-5-7--7-7-7-7-7-7-7--|
 E|-------------5--5-5-5-5-5-5-5--|



[bridge]

pm[                                   . . . . . . . . . . . . . .  ]
 e|----------------------------------------------------------------|
 B|----------------------------------------------------------------|
 G|--9---9---9---9---9---9---9-7-5--5-5-5-5-5-5-5-5-5-5-5-5-5-5-5--|
 D|--9-x-9-x-9-x-9-x-9-x-9-x-9-7-5--5-5-5-5-5-5-5-5-5-5-5-5-5-5-5--|
 A|--7-x-7-x-7-x-7-x-7-x-7-x-7-5-3--3-3-3-3-3-3-3-3-3-3-3-3-3-3-3--|
 E|----------------------------------------------------------------|



[riff]

pm[                               ]
 e|-------------------------------|
 B|-------------------------------|
 G|-------------------------------|
 D|-------------------------------|
 A|--------------3--3-3-----------|
 E|--0--0-3--3-3--------5--5-5-5--|



Order:
  intro  [ x4 ]
  chorus [ x4 ]
  verse  [ x4 ]
  chorus [ x4 ]
  verse  [ x4 ]
  chorus [ x4 ]
  bridge [ x4 ]
  riff   [ x4 ]
  chorus [ x4 ]
  verse  [ x4 ]
  chorus [ x12]


************************************

| /   slide up
| \   slide down
| h   hammer-on
| p   pull-off
| ~   vibrato
| +   harmonic
| x   Mute note
| b   Bend
| pb  Pre-bend
| br  Bend release
| pbr Pre-bend release
| brb Bend release bend

************************************
Добавлено: 13.07.2014
Другие материалы по этой песне:
  • Аккорды и текст

Страница создана 13.07.2014
http://primanota.ru/anti-nowhere-league/my-gods-bigger-than-yours-chords.htm
Привет, Гость.
Предлагаем пройти революционный курс по гитаре.
Подарок от PrimaNota.Ru, забирай!