PrimaNota.ru - самый крупный в мире бесплатный архив песенных текстов, аккордов, табулатур и нот


Anti-nowhere League - Lets Break The Law - текст песни, бас-таба, видео

Регистрация Запомнить меня
Войти через:  Facebook Google Twitter Vk Yandex Mail.ru

Anti-nowhere League - Lets Break The Law - текст песни, бас-таба, видео

Печатать
Просмотров: 129
Уроки эстрадного вокала в Санкт-Петербурге
Авторы: Chris Exall, Nick Culmer

Intro (21 Seconds)
G------------------------------------------------|
D------------------------------------------------|
A------------------------5-5-5-5-5-5-5-5-5-5-5-5-|
E-3-3--5-5-3--5-5--7-7-5-------------------------|

Verse                                           x4
G------------------------------------------------|
D------------------------------------------------|
A-5-5-5-5-5-5-5-5-5-5-5-5------------------------|
E-------------------------3-3--5-5-3--5-5--7-7-5-|

Chorus
G-------------------------------------------------|
D-------------------------------------------------|
A---------------------------------5-5-5-5-5-5-5-5-|
E-3-3-3-3-5-5-5-5-3-3-3-3-3-3-3-3-----------------|

G-------------------------------------------------|
D-------------------------------------------------|
A-------------------------------------------------|
E-3-3-3-3-3-3-3-3-3-3-3-3-5-5-5-5-5-5-5-5-5-5-5-5-|

Verse                                           x4
G------------------------------------------------|
D------------------------------------------------|
A-5-5-5-5-5-5-5-5-5-5-5-5------------------------|
E-------------------------3-3--5-5-3--5-5--7-7-5-|

Chorus
G-------------------------------------------------|
D-------------------------------------------------|
A---------------------------------5-5-5-5-5-5-5-5-|
E-3-3-3-3-5-5-5-5-3-3-3-3-3-3-3-3-----------------|

G-------------------------------------------------|-----------------|
D-------------------------------------------------|-----------------|
A-------------------------------------------------|-5-5-5-5-5-5-5-5-|
E-3-3-3-3-3-3-3-3-3-3-3-3-5-5-5-5-5-5-5-5-5-5-5-5-|-----------------|

Verse                                           x4
G------------------------------------------------|
D------------------------------------------------|
A-5-5-5-5-5-5-5-5-5-5-5-5------------------------|
E-------------------------3-3--5-5-3--5-5--7-7-5-|

Chorus
G-------------------------------------------------|
D-------------------------------------------------|
A---------------------------------5-5-5-5-5-5-5-5-|
E-3-3-3-3-5-5-5-5-3-3-3-3-3-3-3-3-----------------|

G-------------------------------------------------|
D-------------------------------------------------|
A-------------------------------------------------|
E-3-3-3-3-3-3-3-3-3-3-3-3-5-5-5-5-5-5-5-5-5-5-5-5-|

Verse                                           x4
G------------------------------------------------|
D------------------------------------------------|
A-5-5-5-5-5-5-5-5-5-5-5-5------------------------|
E-------------------------3-3--5-5-3--5-5--7-7-5-|

Chorus
G-------------------------------------------------|
D-------------------------------------------------|
A---------------------------------5-5-5-5-5-5-5-5-|
E-3-3-3-3-5-5-5-5-3-3-3-3-3-3-3-3-----------------|

G-------------------------------------------------|
D-------------------------------------------------|
A-------------------------------------------------|
E-3-3-3-3-3-3-3-3-3-3-3-3-5-5-5-5-5-5-5-5-5-5-5-5-|

Добавлено: 23.05.2012
Другие материалы по этой песне:
  • Аккорды и текст

Страница создана 26.03.2012
http://primanota.ru/anti-nowhere-league/lets-break-the-law-chords.htm
Привет, Гость.
Предлагаем пройти революционный курс по гитаре.
Подарок от PrimaNota.Ru, забирай!