PrimaNota.ru - самый крупный в мире бесплатный архив песенных текстов, аккордов, табулатур и нот


Anti-nowhere League - For You - текст песни, таба, видео

Регистрация Запомнить меня
Войти через:  Facebook Google Twitter Vk Yandex Mail.ru

Anti-nowhere League - For You - текст песни, таба, видео

Печатать
Просмотров: 126
Авторы: Clive Blake, Chris Exall, Nick Culmer, Mark Gilham

Artist: Anti-Nowhere League
Song: For You



verse 1:
------------------------|------------------------|------------------------|
------------------------|------------------------|------------------------|
------------------------|------------------------|------------------------|
--2--22--7- 7/979--7-7--|--2--22--7- 7/979--7-7--|--2--22--7- 7/979--7-7--|
--2--22--7- 7/999--7-7--|--2--22--7- 7/999--7-7--|--2--22--7- 7/999--7-7--|
--0--00--5--5/777--5-5--|--0--00--5--5/777--5-5--|--0--00--5--5/777--5-5--|

We laugh........but no'ones laughin'..............We..kissed......and no'one

verse continued
---------------------------|
---------------------------|
---------------------------|
--2--22--7- 7/9-99-9-------|
--2--22--7- 7/9-99-9-------|
--0--00--5--5/7-77-7-------|

..cared.............

verse 1 continued
------------------------|------------------------|------------------------|
------------------------|------------------------|------------------------|
------------------------|------------------------|------------------------|
--2--22--7- 7/979--7-7--|--2--22--7- 7/979--7-7--|--2--22--7- 7/979--7-7--|
--2--22--7- 7/999--7-7--|--2--22--7- 7/999--7-7--|--2--22--7- 7/999--7-7--|
--0--00--5--5/777--5-5--|--0--00--5--5/777--5-5--|--0--00--5--5/777--5-5--|

So we shout!........but no'ones listenin'..........So we live....like no'one

verse continued
---------------------------|
---------------------------|
---------------------------|
--2--22--7- 7/9-99-9-------|
--2--22--7- 7/9-99-9-------|
--0--00--5--5/7-77-7-------|

..dared.............

Chorus:
-------------------------------------------------------------------------|
-------------------------------------------------------------------------|
-------------------------------------------------------------------------|
----6----6----6----6-----4----4----4----4-----2----2----2----2-4-4-4-4-4-|
-44-4-44-4-44-4-44-4--22-2-22-2-22-2-22-2--00-0-00-0-00-0-00-0-2-2-2-2-2-|
-------------------------------------------------------------------------|

For you........i'll be your soldier.......For you, (i dunno what he says)

Chorus continued:
-------------------------------------------------------------------------|
-------------------------------------------------------------------------|
-------------------------------------------------------------------------|
----6----6----6----6-----4----4----4----4-----2----2----2----2-4-4-4-4-4-|
-44-4-44-4-44-4-44-4--22-2-22-2-22-2-22-2--00-0-00-0-00-0-00-0-2-2-2-2-2-|
-------------------------------------------------------------------------|

For you........i'll be your savior........For you, (i dunno what he says)

Repeat Verse 1, Repeat Chorus, then:

-----------------6/7-5------------------6/7-5------------------6/7-5----
-4555455545554555-------4555455545554555-------4555455545554555---------
------------------------------------------------------------------------
------------------------------------------------------------------------
------------------------------------------------------------------------
------------------------------------------------------------------------


-----------------6/7----------0-000-0----------0-000-0----------0-000-0--
-4555455545554555-------------0-000-0----------0-000-0----------0-000-0--
-------------------------------------------------------------------------
----------------------------2----------------2----------------2----------
----------------------------2----------------2----------------2----------
----------------------3b-3b-0----------3b-3b-0----------3b-3b-0----------


-2-4-2-0-------|
---------1-3v--|
---------------|
---------------|
---------------|
---------------|


Go back to chorus


Verse 2:

No guitar for this first part.

So we cry....... and your laughin'........we HATE.....and now you care...so we

------------------------|------------------------|------------------------|
------------------------|------------------------|------------------------|
------------------------|------------------------|------------------------|
--2--22--7- 7/979--7-7--|--2--22--7- 7/979--7-7--|--2--22--7- 7/979--7-7--|
--2--22--7- 7/999--7-7--|--2--22--7- 7/999--7-7--|--2--22--7- 7/999--7-7--|
--0--00--5--5/777--5-5--|--0--00--5--5/777--5-5--|--0--00--5--5/777--5-5--|

shout...........and now your listenin.............We'll die..............

verse2 continued..
---------------------------|
---------------------------|
---------------------------|
--2--22--7- 7/9-99-9-------|
--2--22--7- 7/9-99-9-------|
--0--00--5--5/7-77-7-------|

and you won't care.......

Chorus, then

------------------------|------------------------|------------------------|
------------------------|------------------------|------------------------|
------------------------|------------------------|------------------------|
--2--22--7- 7/979--7-7--|--2--22--7- 7/979--7-7--|--2--22--7- 7/979--7-7--|
--2--22--7- 7/999--7-7--|--2--22--7- 7/999--7-7--|--2--22--7- 7/999--7-7--|
--0--00--5--5/777--5-5--|--0--00--5--5/777--5-5--|--0--00--5--5/777--5-5--|

I dont know what he says here either..but it continues until the song is over

verse2 continued..
----------------------------|
----------------------------|
----------------------------|
--2--22--7- 7/9-99-9---2----|
--2--22--7- 7/9-99-9---2----|
--0--00--5--5/7-77-7---0----|
Добавлено: 07.05.2012
Другие материалы по этой песне:

Страница создана 07.05.2012
http://primanota.ru/anti-nowhere-league/for-you-chords.htm
Привет, Гость.
Предлагаем пройти революционный курс по гитаре.
Подарок от PrimaNota.Ru, забирай!