PrimaNota.ru - самый крупный в мире бесплатный архив песенных текстов, аккордов, табулатур и нот


Anti Flag - The Ink And The Quill - таба, бас-таба, видео

Регистрация Запомнить меня
Войти через:  Facebook Google Twitter Vk Yandex Mail.ru

Anti Flag - The Ink And The Quill - таба, бас-таба, видео

Печатать
Просмотров: 163
This should be pretty right. some of the strum stuff may be off but all the right notes 
chords should be there
____=let it ring
>>>>=pickslide
x=mute

INTRO/VERSE
e-----------------------------------------|
B-----------------------------------------|
G-------------------55555555--------------|
D-77777777-33333333-55555555-55555555-----|x2
A-77777777-33333333-33333333-55555555-----|
E-55555555-11111111----------33333333-----|

e-------------------------------|
B-------------------------------|
G-------------------------------|
D--5-7-9-10-7/9 10-7-7/9-12-----|guitar solo backround thing
A-------------------------------|
E-------------------------------|

PRE-CHORUS
e----------------------------|
B----------------------------|
G----------------------------|
D-3___-5___-55---------------|
A-3___-5___-55---------------|
E-1___-3___-33---------------|

CHORUS
e---------------------------------------------|
B---------------------------------------------|
G----------------5-7--------------------------|x2
D-7777-9-10-3333-x-x-7777-9-10-2222-----------|second time
A-7777-x-x--3333-3-5-7777-x-x--2222-5-3-2-3---|strum Em at end
E-5555-7-8--1111-----5555-7-8--0000-----------|chord

e-------------------------|
B-------------------------|
G-------------------------|
D-77___-77----------------|
A-77___-77----------------|
E-55___-55----------------|

INTRO/VERSEx2 (minus the first A power chord strums)
CHORUS

e-------------------------------------|
B-------------------------------------|
G---------------5555------------------|
D-77___-77-3333-5555-77-7-7___>>>>>---|
A-77___-77-3333-3333-77-7-7___>>>>>---|
E-55___-55-1111------55-5-5___>>>>>---|

e-------------------------|
B-------------------------|
G------5555---------------|
D-3333-5555-5555----------|x3
A-3333-3333-5555----------|
E-1111------3333----------|

e-------------------|
B-------------------|
G-------------------|
D-77_____-----------|
A-77_____-----------|
E-55_____-----------|

WHERE THE KIDS ARE SINGING AND THE THUNDER IS GOING
e---------------------------------------|
B---------------------------------------|
G------10-9-7-5---10-9-7-5---10-9-7-5---|X2
D-7-9/10-------9/10-------9/10-------5--|
A---------------------------------------|

SOLO
e-----------------------------------------------|
B---------------------13-13--13-13---13-17)-15--|
G-99999999-10-9-7-9--------12-----12------------|
D-------------------10--------------------------|
A-----------------------------------------------|
E-----------------------------------------------|
E-----------------------------------------------|

e---------------------------------------------------------|
B---------------------------------------------------------|
G---------------------------------------------------------|
D-10-10/9/10-12-10-10/9/10-12-14-12-10-12-10-9-10-9-------|
A---------------------------------------------------10-12-|
E---------------------------------------------------------|

e---------------------------------------------|
B---------------------------------------------|
G----9----10----12---10--9-12-14-16-17-14__---|
D-10---10----10---10---10---------------------|
A---------------------------------------------|
E---------------------------------------------|

CHORUSx2 theres a couple different strum patterns but its not too bad its pretty easy 
listen to the song
Добавлено: 26.02.2012
Другие материалы по этой песне:
  • Аккорды и текст

Страница создана 26.02.2012
http://primanota.ru/anti-flag-2/the-ink-and-the-quill-chords.htm
Привет, Гость.
Предлагаем пройти революционный курс по гитаре.
Подарок от PrimaNota.Ru, забирай!