PrimaNota.ru - самый крупный в мире бесплатный архив песенных текстов, аккордов, табулатур и нот


Anti Flag - Set Yourself On Fire - бас-таба, видео

Регистрация Запомнить меня
Войти через:  Facebook Google Twitter Vk Yandex Mail.ru

Anti Flag - Set Yourself On Fire - бас-таба, видео

Печатать
Просмотров: 59
Уроки эстрадного вокала в Санкт-Петербурге
Авторы: Anti‐Flag

Intro

10 bars of nothing then
Gb|----------------|----------------|----------------|----------------|
Db|----------------|---------5-3----|----------------|-----5-----5---5|
Ab|-0-0-0-0--------|-3-3-3-3-----5-3|-0-0-0-0--------|-3-3---3-3---3--|
Eb|---------1-1-1-1|----------------|---------1-1-1-1|----------------|

Gb|----------------|----------------|----------------|----------------|
Db|----------------|---------5-3----|----------------|---------3-3-5-5|
Ab|-0-0-0-0--------|-3-3-3-3-----5-3|-0-0-0-0--------|-3-3-5-5--------|
Eb|---------1-1-1-1|----------------|---------1-1-1-1|----------------|


Verse
"Crashing at the beach till season's end..."
Gb|----------------|----------------|--------------------|----------------|
Db|-7-7-7-7-7-5----|----------------|-7-7-7-7-7-10-9-7---|----------------|
Ab|-------------9-7|-3-3-3-3-3-3-5-7|------------------10|-3-3-3-3-3-3-5-7|
Eb|----------------|----------------|--------------------|----------------|

Gb|----------------|----------------|--------------------|----------------|
Db|-----7-7-7-5----|----------------|-7-7-7-7-7-10-9-7---|----------------|
Ab|-------------9-7|-3-3-3-3-3-3-5-7|------------------10|-3-3-3-3-3-3-5-7|
Eb|----------------|----------------|--------------------|----------------|

Pre-Chorus
"All caught up in the things..."
Gb|----------------|----------------|----------------|----------------|
Db|----------------|----------------|---------3-3----|-3-3-2-2--------|
Ab|----------------|----------------|-----3-3-----3-3|---------5-5-3-3|
Eb|-3-3-3-3-3-3-3-3|-5-5-5-5-5-5-5-5|-1-1------------|----------------|

Gb|----------------|----------------|----------------|----------------|
Db|----------------|----------------|----------------|----------------|
Ab|----------------|----------------|----------------|----------------|
Eb|-3-3-3-3-3-3-3-3|-5-5-5-5-5-5-5-5|-1-1-1-1-1-1-1-1|-1-1-1-1-1-1-1-1|


Chorus
"You've gotta set yourself on fire..."
Gb|----------------|----------------|----------------|----------------|
Db|-7-7-7-7-7-5----|----------------|-7-7-7-7-7-5----|----------------|
Ab|-------------9-7|-3-3-3-3-3-3-5-7|-------------9-7|-3-3-3-3-3-3-3-3|
Eb|----------------|----------------|----------------|----------------|

Gb|----------------|----------------|----------------|----------------|
Db|----------------|---------5-3----|----------------|----------------|
Ab|-0-0-0-0--------|-3-3-3-3-----5-3|-0-0-0-0--------|-3-3-3-3-3-3-3-3|
Eb|---------1-1-1-1|----------------|---------1-1-1-1|----------------|


Intro
Gb|----------------|----------------|----------------|----------------|
Db|----------------|---------5-3----|----------------|-----5-----5---5|
Ab|-0-0-0-0--------|-3-3-3-3-----5-3|-0-0-0-0--------|-3-3---3-3---3--|
Eb|---------1-1-1-1|----------------|---------1-1-1-1|----------------|

Gb|----------------|----------------|----------------|----------------|
Db|----------------|---------5-3----|----------------|---------3-3-5-5|
Ab|-0-0-0-0--------|-3-3-3-3-----5-3|-0-0-0-0--------|-3-3-5-5--------|
Eb|---------1-1-1-1|----------------|---------1-1-1-1|----------------|


Verse
"Those days reckless, earnest, angry and naive..."
Gb|----------------|----------------|--------------------|----------------|
Db|-7-7-7-7-7-5----|----------------|-7-7-7-7-7-10-9-7---|----------------|
Ab|-------------9-7|-3-3-3-3-3-3-5-7|------------------10|-3-3-3-3-3-3-5-7|
Eb|----------------|----------------|--------------------|----------------|

Gb|----------------|----------------|--------------------|----------------|
Db|-----7-7-7-5----|----------------|-7-7-7-7-7-10-9-7---|----------------|
Ab|-------------9-7|-3-3-3-3-3-3-5-7|------------------10|-3-3-3-3-3-3-5-7|
Eb|----------------|----------------|--------------------|----------------|

Pre-Chorus
"All caught up in the things..."
Gb|----------------|----------------|----------------|----------------|
Db|----------------|----------------|---------3-3----|-3-3-2-2--------|
Ab|----------------|----------------|-----3-3-----3-3|---------5-5-3-3|
Eb|-3-3-3-3-3-3-3-3|-5-5-5-5-5-5-5-5|-1-1------------|----------------|

Gb|----------------|----------------|----------------|----------------|
Db|----------------|----------------|----------------|-5-5-5-5-7-7-7-7|
Ab|----------------|----------------|----------------|----------------|
Eb|-3-3-3-3-3-3-3-3|-5-5-5-5-5-5-5-5|-5-5-5-5-5-5-5-5|----------------|

Gb|--------------------|
Db|-9-9-9-9-12-12-12-12|
Ab|--------------------|
Eb|--------------------|


Chorus
"You've gotta set yourself on fire..."
Gb|----------------|----------------|----------------|----------------|
Db|-7-7-7-7-7-5----|----------------|-7-7-7-7-7-5----|----------------|
Ab|-------------9-7|-3-3-3-3-3-3-5-7|-------------9-7|-3-3-3-3-3-3-3-3|
Eb|----------------|----------------|----------------|----------------|

Gb|----------------|----------------|----------------|----------------|
Db|----------------|---------5-3----|----------------|----------------|
Ab|-0-0-0-0--------|-3-3-3-3-----5-3|-0-0-0-0--------|-3-3-3-3-3-3-3-3|
Eb|---------1-1-1-1|----------------|---------1-1-1-1|----------------|

Gb|----------------|------------------------|-----------------------|
Db|----------------|------------------------|-----------------------|
Ab|-3-3-3-3-3-3-3-3|/15-15-15-15-15-15-15-15|-----3-----3-----3-----|
Eb|----------------|------------------------|-----------------------|


Bridge
"What are we, what are we going to do now..."
Gb|----------------|----------------|----------------|----------------|
Db|----------------|----------------|----------------|---7-5---5------|
Ab|----------------|----------------|----------------|-------7---7-5--|
Eb|-1-1-1-1-1-1-1-1|-1-1-1-1-1-1-1-1|-5-5-5-5-5-5-5-5|-5-------------7|

Gb|----------------|----------------|----------------|----------------|
Db|----------------|----------------|----------------|-7.7.7.7.7.7.7.7|
Ab|----------------|----------------|----------------|----------------|
Eb|-1-1-1-1-1-1-1-1|-1-1-1-1-1-1-1-1|-5-5-5-5-5-5-5-5|----------------|

Gb|----------------|----------------|----------------|------------------------|
Db|----------------|----------------|----------------|-15-14-12----12---------|
Ab|----------------|----------------|----------------|----------15----15-14-12|
Eb|-1-1-1-1-1-1-1-1|-1-1-1-1-1-1-1-1|-5-5-5-5-5-5-5-5|------------------------|

Gb|----------------|----------------|----------------|----------------|
Db|----------------|----------------|----------------|----------------|
Ab|----------------|----------------|----------------|----------------|
Eb|-1-1-1-1-1-1-1-1|-1-1-1-1-1-1-1-1|-5-5-5-5-5-5-5-5|----------------|


Chorus
"You've gotta set yourself on fire..."
Gb|----------------|----------------|----------------|----------------|
Db|-7-7-7-7-7-5----|----------------|-7-7-7-7-7-5----|----------------|
Ab|-------------9-7|-3-3-3-3-3-3-5-7|-------------9-7|-3-3-3-3-3-3-3-3|
Eb|----------------|----------------|----------------|----------------|                           *
                                                                              Play Twice - End on 3 
Gb|----------------|----------------|----------------|----------------|
Db|----------------|---------5-3----|----------------|-*-------3-3-5-5|
Ab|-0-0-0-0--------|-3-3-3-3-----5-3|-0-0-0-0--------|-3-3-5-5--------|
Eb|---------1-1-1-1|----------------|---------1-1-1-1|----------------|


Tabbed by: Scott Watters

| /  slide up
| \  slide down
| h  hammer-on
| p  pull-off
| ~  vibrato
| +  harmonic
| x  Mute note
| .  Stop note
Добавлено: 28.04.2016
Другие материалы по этой песне:
  • Аккорды и текст

Страница создана 28.04.2016
http://primanota.ru/anti-flag-2/set-yourself-on-fire-chords.htm
Привет, Гость.
Предлагаем пройти революционный курс по гитаре.
Подарок от PrimaNota.Ru, забирай!