PrimaNota.ru - самый крупный в мире бесплатный архив песенных текстов, аккордов, табулатур и нот


Anti Flag - No Future - текст песни, таба, бас-таба, видео

Регистрация Запомнить меня
Войти через:  Facebook Google Twitter Vk Yandex Mail.ru

Anti Flag - No Future - текст песни, таба, бас-таба, видео

Печатать
Просмотров: 382
Уроки эстрадного вокала в Санкт-Петербурге
Intro

e-----------------9-9---9-9---11-11---12-12----9-9---9-9---11-11---7-7-----|
B--------------------9-9---9-9-----9-9-----9-9----9-9---9-9-----9-9---7-7--|
G--6~-6~-6~-6--------------------------------------------------------------|
D--6~-6~-6~-6--------------------------------------------------------------|
A--4~-4~-4~-4--------------------------------------------------------------|
E--------------------------------------------------------------------------|

e--9-9---9-9---11-11---12-12----4-4---4-4---5-5---7-7----|
B-----9-9---9-9-----9-9-----9-9----5-5---5-5---5-5---5-5-|
G--------------------------------------------------------|
D--------------------------------------------------------|
A--------------------------------------------------------|
E--------------------------------------------------------|

Verse

e-------------------|
B-------------------|
G--6XXXXXXXXXXXXXXXX  listen to song to release palm mute
D--6XXXXXXXXXXXXXXXX
A--4XXXXXXXXXXXXXXXX
E-------------------

Pre chorus

e--------------|
B--------------|
G--------------|
D--7~-7~-7~-9--|
A--7~-7~-7~-9--|
E--5~-5~-5~-7--|

Chorus

e------------------|
B------------------|
G--6--9------------|
D--6--9--9--7------|
A--4--7--9--7------|
E--------7--5------|

Intro riff

Verse 2

e-------9-9-9-9-9-9-9-9-9~-|
B--------------------------|
G--6~~---------------------|
D--6~~---------------------|
A--4~~---------------------|
E--------------------------|

Pre Chorus

Chorus

Interlude  "I Know.."

e---------------------------------------------------------------------------|
B---------------------------------------------------------------------------|
G--6-6--6-6--9---------6-6--6-6--9--11-16---6-6--6-6-6/9/8--6-6--6-6-6/9/11-|
D--6-6--6-6--9--9--7---6-6--6-6--x--x--x----6-6--6-6-x/x/x--6-6--6-6-x/x/x--|
A--4-4--4-4--7--9--7---4-4--4-4--7--9--14---4-4--4-4-4/7/6--4-4--4-4-4/7/9--|
E---------------7--5--------------------------------------------------------|

e--------------------------------------------------------|
B--------------------------------------------------------|
G--9---------6-6--6-6-6/9/8--6-6--6-6-6/9/11--9--11--16--|
D--9--9--7---6-6--6-6-x/x/x--6-6--6-6-x/x/x---x--x---x---|
A--7--9--7---4-4--4-4-4/7/6--4-4--4-4-4/7/9---7--7---14--|
E-----7--5-----------------------------------------------|

Intro
Добавлено: 21.07.2012
Другие материалы по этой песне:

Страница создана 02.04.2012
http://primanota.ru/anti-flag-2/no-future-chords.htm
Привет, Гость.
Предлагаем пройти революционный курс по гитаре.
Подарок от PrimaNota.Ru, забирай!