PrimaNota.ru - самый крупный в мире бесплатный архив песенных текстов, аккордов, табулатур и нот


Anti Flag - Good N Ready - таба, бас-таба, видео

Регистрация Запомнить меня
Войти через:  Facebook Google Twitter Vk Yandex Mail.ru

Anti Flag - Good N Ready - таба, бас-таба, видео

Печатать
Просмотров: 284
- Anti-Flag - Good 'N' Ready (From their upcoming album called "The Bright Lights Of America")
- Tabbed by: Pacu, bassis from a brazilian punk rock band called PunkAss.
- This is a new song that will be in their upcoming album..Its easy to play, just
listen to the song and enjoy it.

______


Intro
e|-------------------|
B|-------------------|
G|-4-4-4-4-4-4-4-4-2-|
D|-4-4-4-4-4-4-4-4-2-|
A|-2-2-2-2-2-2-2-2-0-|
E|-------------------|

First Chorus
e|---------------------------------------------------------------------|
B|-----------------------------------8-8-8-8-8-8-8-8-7-7-7-7-8-8-10-10-|
G|-4-4-4-4-4-4-4-4-2-4-4-4-4-4-4-4-4-7-7-7-7-7-7-7-7-6-6-6-6-7-7--9--9-|
D|-4-4-4-4-4-4-4-4-2-4-4-4-4-4-4-4-4-5-5-5-5-5-5-5-5-4-4-4-4-5-5--7--7-|
A|-2-2-2-2-2-2-2-2-0-2-2-2-2-2-2-2-2-----------------------------------|
E|---------------------------------------------------------------------|

e|------------------------------------|-----|
B|------------------------------------|-----|
G|-44444444244444444---------------22-|--4--|
D|-44444444244444444-5555555544445522-|--4--|
A|-22222222022222222-5555555544445500-|--2--|
E|-------------------33333333222233---|-----|

Verse Guitar I [2x] [PM]
e|-----------------|--------|-----------------|
B|-----------------|--------|-----------------|
G|-----------------|--------|-----------------|
D|---------4-------|--[3x]--|-----------------|
A|-----5-7---7-5---|--------|-7-5---5---------|
E|-5-7-----------7-|--------|-----7---7-5-3-5-|

e|-----------------|--------|---------------------------------|
B|-----------------|--------|---------------------------------|
G|-----------------|--------|---------------------------------|
D|-5-4-------------|--[2x]--|---------2---2---5-4-2---2-------|
A|-----7-5-7-5---5-|--------|-----3-5---5---5-------5---5-4-2-|
E|-------------7---|--------|-3-5-----------------------------|

Verse Guitar II [2x]
e|---------------------------------------------------------------------|
B|-----------------------------------8-8-8-8-8-8-8-8-7-7-7-7-8-8-10-10-|
G|-4-4-4-4-4-4-4-4-2-4-4-4-4-4-4-4-4-7-7-7-7-7-7-7-7-6-6-6-6-7-7--9--9-|
D|-4-4-4-4-4-4-4-4-2-4-4-4-4-4-4-4-4-5-5-5-5-5-5-5-5-4-4-4-4-5-5--7--7-|
A|-2-2-2-2-2-2-2-2-0-2-2-2-2-2-2-2-2-----------------------------------|
E|---------------------------------------------------------------------|

Pré-Chorus 
e|-------------------------|
B|-------------------------|
G|-------------------------|
D|-44~--44~-44-44-44-44-44-|
A|-44~--44~-44-44-44-44-44-|
E|-22~--22~-22-22-22-22-22-|

Chorus [2x]
e|------------------------------------|
B|------------------------------------|
G|-44444444244444444---------------22-|
D|-44444444244444444-5555555544445522-|
A|-22222222022222222-5555555544445500-|
E|-------------------33333333222233---|

Verse [2x]
e|-------------------------------------------------------------------------|
B|---------------------------------------8-8-8-8-8-8-8-8-7-7-7-7-8-8-10-10-|
G|-4-4-4-4-4-4-44-66-7-4-4-4-4-4-4-77646-7-7-7-7-7-7-7-7-6-6-6-6-7-7--9--9-|
D|-4-4-4-4-4-4-xx-xx-x-4-4-4-4-4-4-xxxxx-5-5-5-5-5-5-5-5-4-4-4-4-5-5--7--7-|
A|-2-2-2-2-2-2-22\44\5-2-2-2-2-2-2-55424-----------------------------------|
E|-------------------------------------------------------------------------|

Pré-Chorus 
Chorus [2x]

Bridge [Acoustic Guitar]
e|-----------3-33-3-33-2-22-2-22-----------|--------|
B|-----------3-33-3-33-3-33-3-33-2-22-2-22-|--------|
G|-4-44-4-44-----------2-22-2-22-2-22-2-22-|--------|
D|-4-44-4-44-----------0-00-0-00-2-22-2-22-|--[2x]--|
A|-2-22-2-22-2-22-2-22-----------0-00-0-00-|--------|
E|-----------3-33-3-33---------------------|--------|

              [3x]                         [After 3th time]
e|-----------------------------|----------------------------------------|
B|-----------------------------|----------------------------------------|
G|-2\4-44-2\4-7-2\4-44-2\4-7-6-|-2\4-44444-2\4-44444-2\4-44-6666-7777-9-|
D|-----------------------------|----------------------------------------|
A|-----------------------------|----------------------------------------|
E|-----------------------------|----------------------------------------|

“you'll get yours when you're...”
  [03:21]
e|---------------------------|
B|---------------------------|
G|-4-4-4-4-4-4-4-4-4-4-4-4-4-|
D|-4-4-4-4-4-4-4-4-4-4-4-4-4-|
A|-2-2-2-2-2-2-2-2-2-2-2-2-2-|
E|---------------------------|

Chorus [2x]

Ending
e|-----------------|
B|-----------------|
G|-44~--44~--44~-4-|
D|-44~--44~--44~-4-|
A|-22~--22~--22~-2-|
E|-----------------|
Добавлено: 27.06.2012
Другие материалы по этой песне:

Страница создана 01.03.2012
http://primanota.ru/anti-flag-2/good-n-ready-chords.htm
Привет, Гость.
Предлагаем пройти революционный курс по гитаре.
Подарок от PrimaNota.Ru, забирай!