PrimaNota.ru - самый крупный в мире бесплатный архив песенных текстов, аккордов, табулатур и нот


Anti Flag - Depleted Uranium Is A War Crime - текст песни, таба, бас-таба, видео

Регистрация Запомнить меня
Войти через:  Facebook Google Twitter Vk Yandex Mail.ru

Anti Flag - Depleted Uranium Is A War Crime - текст песни, таба, бас-таба, видео

Печатать
Просмотров: 121
Depleted Uranium Is A War Crime

thanks to shaun_amos from The People United for most of this tab

Legend
b- bend
.- palmute

Intro
Rhythm
E|--------------------------------|  |---|
B|--------------------------------|  |---|
G|-----444------------------------|  |-6~|
D|6666622222222444------------4444|x2|-6~|
A|44444---000002226666666677772222|  |-4~|
E|----------------444444445555----|  |---|
  ................................

Lead comes in Second Time
E|4-0-4-0-4-0-4-0-4-0-4-0-4-0-----|  |---|
B|----------------------------454-|  |-2~|
G|--------------------------------|  |---|
D|--------------------------------|  |---|
A|--------------------------------|  |---|
E|--------------------------------|  |---|

Verse
E|------------------|
B|------------------|
G|-----4------------|
D|-66-624-422-244-4-|x4
A|-44-4-2-200-022-2-|
E|------------------|

Chorus
E|----------------------------------------------------------|
B|----------------------------------------------------------|
G|--------4-4-4-4-66-466-466-66444---------4-4-4-4-6---6---6|
D|6-6-6-6-4-4-4-4-66-466-466-66444-6-6-6-6-4-4-4-4-6---6---6|
A|6-6-6-6-2-2-2-2-44-244-244-44222-6-6-6-6-2-2-2-2-4---4---4|
E|4-4-4-4--------------------------4-4-4-4------------------|

Verse
E|------------------|
B|------------------|
G|-----4------------|
D|-66-624-422-244-4-|x4
A|-44-4-2-200-022-2-|
E|------------------|

Chorus
E|----------------------------------------------------------|
B|----------------------------------------------------------|
G|--------4-4-4-4-66-466-466-66444---------4-4-4-4-6~~~~~~~~|
D|6-6-6-6-4-4-4-4-66-466-466-66444-6-6-6-6-4-4-4-4-6~~~~~~~~|
A|6-6-6-6-2-2-2-2-44-244-244-44222-6-6-6-6-2-2-2-2-4~~~~~~~~|
E|4-4-4-4--------------------------4-4-4-4------------------|

Bridge
E|---------------|
B|---------------|
G|6-6-6-6-6-6-6-6|
D|6-6-6-6-6-6-6-6|x2 dont let these chords ring
A|4-4-4-4-4-4-4-4|
E|---------------|

Bridge Part 2
Lead
E|44------44------44------44--7755|
B|--554455--554455--554455--55----|
G|--------------------------------|
D|--------------------------------|
A|--------------------------------|
E|--------------------------------|
  ................................

Rhythm
E|----------------------------|
B|----------------------------|
G|6-6-4444--------------------|
D|6-6-2222222224446-6-----4444|x2
A|4-4-----000002226-6-77772222|
E|----------------4-4-5555----|
      ............    ........

Bridge Part 3
Lead
E|-5-4-0-5-4-0-5-4-0-5-4-0-5-4-0-5-4-0-7-5-4|x2
B|------------------------------------------|
G|------------------------------------------|
D|------------------------------------------|
A|------------------------------------------|
E|------------------------------------------|

Rhythm
E|--------------------------------|
B|--------------------------------|
G|6666644422222444------------4444|
D|66666222222224446666666677774444|x2
A|44444---000002226666666677772222|
E|----------------444444445555----|

Solo
Lead
Solo(not sure about the last few notes)
E|-------------------------------------------------|
B|--9b11--9b11--9b11--9b11--9b11--9b11-------------|
G|-11b13-11b13-11b13-11b13-11b13-11b13----9---11-9-|
D|--------------------------------------11--11-----|
A|-------------------------------------------------|
E|-------------------------------------------------|

E|-------------------------------------------------|
B|--9b11--9b11--9b11--9b11--9b11--9b11-12b14-12b13-|
G|-11b13-11b13-11b13-11b13-11b11-11b13-------------|
D|-------------------------------------------------|
A|-------------------------------------------------|
E|-------------------------------------------------|

E|-------------------------------12----------------------|
B|-12b14-10----12b14-10----12b14----12-10-12b14-10-------|
G|----------11----------11-------------------------12b14-|
D|-------------------------------------------------------|
A|-------------------------------------------------------|
E|-------------------------------------------------------|

Rhythm
E|--------------------------------|
B|--------------------------------|
G|6666644422222444------------4444|
D|66666222222224446666666677774444|x2
A|44444---000002226666666677772222|
E|----------------444444445555----|

Chorus
E|--------------------------------|  |--------------------------|
B|--------------------------------|  |--------------------------|
G|--------4-4-4-4-66-466-466-66444|  |---------4-4-4-4-6~~~~~~~~|
D|6-6-6-6-4-4-4-4-66-466-466-66444|x2|-6-6-6-6-4-4-4-4-6~~~~~~~~|
A|6-6-6-6-2-2-2-2-44-244-244-44222|  |-6-6-6-6-2-2-2-2-4~~~~~~~~|
E|4-4-4-4-------------------------|  |-4-4-4-4------------------|

I dont know the rhythm or lead from here on out
if anyone has it put it in the comments and I will edit it in
Добавлено: 09.08.2013
Другие материалы по этой песне:
  • Аккорды и текст

Страница создана 09.08.2013
http://primanota.ru/anti-flag-2/depleted-uranium-is-a-war-crime-chords.htm
Привет, Гость.
Предлагаем пройти революционный курс по гитаре.
Подарок от PrimaNota.Ru, забирай!