PrimaNota.ru - самый крупный в мире бесплатный архив песенных текстов, аккордов, табулатур и нот


Anti Flag - Death of a Nation - текст песни, таба, драм-таба, видео

Регистрация Запомнить меня
Войти через:  Facebook Google Twitter Vk Yandex Mail.ru

Anti Flag - Death of a Nation - текст песни, таба, драм-таба, видео

Печатать
Просмотров: 164
Авторы: Chris Head, Justin Sane, Pat Thetic, Chris #2

-------------------------------------------------------------------------------
			 Death of a Nation - Anti-Flag
-------------------------------------------------------------------------------
Tabbed by: Cockroach
Email: punkrockroach@yahoo.com

Tuning: Normal Anti-Flag Tuning: Half Step Down


We are the youth, we are the death of a nation...


Verse 1
When all you needed...

eb|-------------------------------------------------------------|
Bb|-------------------------------------------------------------|
Gb|---------7-7--7---------------4-4--4-4-4--4------------------|
Db|--444--4-7-7--7-7-7--7-6-6--6-4-4--4-4-4--4-2-2--2-2-2--2----|
Ab|--444--4-5-5--5-7-7--7-6-6--6-2-2--2-2-2--2-2-2--2-2-2--2----|
Eb|--222--2--------5-5--5-4-4--4---------------0-0--0-0-0--0----|
								   Guitar 2
eb|-------------------------------------------------------------| |-----0---|
Bb|-------------------------------------------------------------| |---------|
Gb|---------7-7--7---------------4-4--4-4-4--4------------------| |---2-----|
Db|--4-4--4-7-7--7-7-7--7-6-6--6-4-4--4-4-4--4-2-2--2-2-2--2----| |-4-------|
Ab|--4-4--4-5-5--5-7-7--7-6-6--6-2-2--2-2-2--2-2-2--2-2-2--2----| |---------|
Eb|--2-2--2--------5-5--5-4-4--4---------------0-0--0-0-0--0----| |---------|

eb|-------------------------------------------------------------|
Bb|-------------------------------------------------------------|
Gb|---------7-7--7---------------4-4--4-4-4--4------------------|
Db|--444--4-7-7--7-7-7--7-6-6--6-4-4--4-4-4--4-2-2--2-2-2--2----|
Ab|--444--4-5-5--5-7-7--7-6-6--6-2-2--2-2-2--2-2-2--2-2-2--2----|
Eb|--222--2--------5-5--5-4-4--4---------------0-0--0-0-0--0----|

eb|--------------------------------------------------------------------------------------|
Bb|--------------------------------------------------------------------------------------|
Gb|---------7-7--7---------------4-4--4-4-4--4-4-4--4-4-4--4-2-2--2-2-2--2-2-2--2-2-2--2-|
Db|--444--4-7-7--7-7-7--7-6-6--6-4-4--4-4-4--4-4-4--4-4-4--4-2-2--2-2-2--2-2-2--2-2-2--2-|
Ab|--444--4-5-5--5-7-7--7-6-6--6-2-2--2-2-2--2-2-2--2-2-2--2-0-0--0-0-0--0-0-0--0-0-0--0-|
Eb|--222--2--------5-5--5-4-4--4---------------------------------------------------------|

Chorus 1:

Say your prayers...

eb|--------------------|
Bb|--------------------|
Gb|----------7---7-----|
Db|-4-4-424--7-7-7-7---|
Ab|-4-4-424--5-7-5-7---|
Eb|-2-2-202----5---5---| x3

eb|----------------------------------|
Bb|----------------------------------|
Gb|--4--4--4-4-4-4-7--7-7-7-7-7-7----|
Db|--4--4--4-4-4-4-7--7-7-7-7-7-7----|
Ab|--2--2--2-2-2-2-5--5-5-5-5-5-5----|
Eb|----------------------------------|

Verse 2

Condenscending broad generalizations...

be|-------------2---------------------------------0------|
bB|----------------2--3--5-------------------------------|
bG|--------------------------------------------2---------|
bD|--4~~~~~-----------------4~~~~~----------4------------|
bA|--4~~~~~-----------------4~~~~~---<<<<<---------------|
bE|--2~~~~~-----------------2~~~~~---<<<<<---------------|

eb|-------------------------------------------------------------|
Bb|-------------------------------------------------------------|
Gb|---------7-7--7---------------4-4--4-4-4--4------------------|
Db|--444--4-7-7--7-7-7--7-6-6--6-4-4--4-4-4--4-2-2--2-2-2--2----|
Ab|--444--4-5-5--5-7-7--7-6-6--6-2-2--2-2-2--2-2-2--2-2-2--2----|
Eb|--222--2--------5-5--5-4-4--4---------------0-0--0-0-0--0----|

eb|--------------------------------------------------------------------------------------|
Bb|--------------------------------------------------------------------------------------|
Gb|---------7-7--7---------------4-4--4-4-4--4-4-4--4-4-4--4-2-2--2-2-2--2-2-2--2-2-2--2-|
Db|--444--4-7-7--7-7-7--7-6-6--6-4-4--4-4-4--4-4-4--4-4-4--4-2-2--2-2-2--2-2-2--2-2-2--2-|
Ab|--444--4-5-5--5-7-7--7-6-6--6-2-2--2-2-2--2-2-2--2-2-2--2-0-0--0-0-0--0-0-0--0-0-0--0-|
Eb|--222--2--------5-5--5-4-4--4---------------------------------------------------------|

Chorus 2:

Say your prayers...

eb|--------------------|
Bb|--------------------|
Gb|----------7---7-----|
Db|-4-4-424--7-7-7-7---|             \
Ab|-4-4-424--5-7-5-7---|              \
Eb|-2-2-202----5---5---| x3            \
                                        \ x2
eb|----------------------------------|  /
Bb|----------------------------------| /
Gb|--4--4--4-4-4-4-7--7-7-7-7-7-7----|/
Db|--4--4--4-4-4-4-7--7-7-7-7-7-7----|
Ab|--2--2--2-2-2-2-5--5-5-5-5-5-5----| 
Eb|----------------------------------|

Bridge:

Agressiveness is Godliness...

eb|------------------|
Bb|------------------|
Gb|------------------|
Db|--4-4-----4-4-----|
Ab|--4-4-----4-4-----|
Eb|--2-2-----2-2-----| x4
     P.M.    P.M.


eb|----------2/3-----|
Bb|----------2/3-----|
Gb|------------------|
Db|--4-4-------------| x11
Ab|--4-4-------------|
Eb|--2-2-------------|
     P.M.    

eb|------------------|
Bb|------------------|
Gb|------------------|
Db|--4-4-----4-4-----|
Ab|--4-4-----4-4-----|
Eb|--2-2-----2-2-----| x1.5
     P.M.    P.M.
                                                                    Guitar 2
eb|-------------------------------------------------------------| |-----0---|
Bb|-------------------------------------------------------------| |---------|
Gb|---------7-7--7---------------4-4--4-4-4--4------------------| |---2-----|
Db|--4-4--4-7-7--7-7-7--7-6-6--6-4-4--4-4-4--4-2~~~~------------| |-4-------|
Ab|--4-4--4-5-5--5-7-7--7-6-6--6-2-2--2-2-2--2-2~~~~------------| |---------|
Eb|--2-2--2--------5-5--5-4-4--4---------------0~~~~------------| |---------|


| /  slide up
| \  slide down
| h  hammer-on
| p  pull-off
| ~  vibrato
| +  harmonic
| x  Mute note
===============================================================================
Добавлено: 17.06.2013
Другие материалы по этой песне:
  • Аккорды и текст

Страница создана 21.06.2012
http://primanota.ru/anti-flag-2/death-of-a-nation-chords.htm
Привет, Гость.
Предлагаем пройти революционный курс по гитаре.
Подарок от PrimaNota.Ru, забирай!