PrimaNota.ru - самый крупный в мире бесплатный архив песенных текстов, аккордов, табулатур и нот


Anti Flag - Cities Burn - текст песни, таба, бас-таба, видео

Регистрация Запомнить меня
Войти через:  Facebook Google Twitter Vk Yandex Mail.ru

Anti Flag - Cities Burn - текст песни, таба, бас-таба, видео

Печатать
Просмотров: 152
Авторы: Chris Head, Justin Sane, Pat Thetic, Chris #2

Cities Burn by Anti-Flag
Tuned down Half Step

Intro
Lead
Eb|---------------------------------------|
Bb|888888885555666633333333888888855556666|
Gb|555555555555555555555555555555555555555|
Db|---------------------------------------|
Ab|---------------------------------------|
Eb|---------------------------------------|

Rhythm
Eb|-------------------------------------------------------|
Bb|---------------------------------------6666666666666666|
Gb|------------------------5~--7~---------5555555555555555|
db|------------------------5~--7~---------3333333333333333|
Ab|------------------------3~--5~-------------------------|
Eb|-------------------------------------------------------|
                                          ........
Verse
x2
|---------------------------------------|
|---------------------------------------|
|55-5-55-5-55-5-55-5--------------------|
|55-5-55-5-55-5-55-5-33-3-33-3-33-3-33-3|
|33-3-33-3-33-3-33-3-33-3-33-3-33-3-33-3|
|--------------------11-1-11-1-11-1-11-1|

x2
|------------------------------------|
|--------------------6666666666666666|
|55-5-55-5-55-5-55-5-5555555555555555|
|55-5-55-5-55-5-55-5-3333333333333333|
|33-3-33-3-33-3-33-3-----------------|
|------------------------------------|
 ..   ..   ..   ..

Chorus
Lead
|------------------------|
|888888885555666633333333|
|555555555555555555555555|
|------------------------|
|------------------------|
|------------------------|

Rhythm
|------------------------|
|----------------6~~~~~~~|
|5~~~~~~~7~~~~~~~5~~~~~~~|
|5~~~~~~~7~~~~~~~3~~~~~~~|
|3~~~~~~~5~~~~~~~--------|
|------------------------|

|--------------------------------|
|----------------6666666666666666|
|5~~~~~~~7~~~~~~~5555555555555555|
|5~~~~~~~7~~~~~~~3333333333333333|
|3~~~~~~~5~~~~~~~----------------|
|--------------------------------|
                 ........

Verse 2
x2
|---------------------------------------|
|---------------------------------------|
|55-5-55-5-55-5-55-5--------------------|
|55-5-55-5-55-5-55-5-33-3-33-3-33-3-33-3|
|33-3-33-3-33-3-33-3-33-3-33-3-33-3-33-3|
|--------------------11-1-11-1-11-1-11-1|

x2
|------------------------------------|
|--------------------6666666666666666|
|55-5-55-5-55-5-55-5-5555555555555555|
|55-5-55-5-55-5-55-5-3333333333333333|
|33-3-33-3-33-3-33-3-----------------|
|------------------------------------|
 ..   ..   ..   ..

Bridge
|-------------------------------------------|
|-------------------------------------------|
|-------------------------------------------|
|7-7-5-5-3-3-3-3-7-7-5-5-3-3-3-3-3-7-77-5-55|
|7-7-5-5-3-3-3-3-7-7-5-5-3-3-3-3-3-7-77-5-55|
|5-5-3-3-1-1-1-1-5-5-3-3-1-1-1-1-1-5-55-3-33|

Chorus
Lead
|------------------------|
|888888885555666633333333|
|555555555555555555555555|
|------------------------|
|------------------------|
|------------------------|

Rhythm
|------------------------|
|----------------6~~~~~~~|
|5~~~~~~~7~~~~~~~5~~~~~~~|
|5~~~~~~~7~~~~~~~3~~~~~~~|
|3~~~~~~~5~~~~~~~--------|
|------------------------|

|--------------------------------|
|----------------6666666666666666|
|5~~~~~~~7~~~~~~~5555555555555555|
|5~~~~~~~7~~~~~~~3333333333333333|
|3~~~~~~~5~~~~~~~----------------|
|--------------------------------|
                 ........

Solo
Lead
|------------------------------------------------------------|
|-88---8-66---6-5b-5b-5b-5b-5b\-88---8-66---6-5b-5b-5b-5b-5b\|
|----9------7----------------------9------7------------------|
|------------------------------------------------------------|
|------------------------------------------------------------|
|------------------------------------------------------------|

|-----------------------------------------------8b---10b-8b--|
|-8---8---8-10-8--8---8----------8---8---8-10-8----8--------8|
|---9---9-----------9---9-10-9-7---9---9---------------------|
|------------------------------------------------------------|
|------------------------------------------------------------|
|------------------------------------------------------------|

Rhythm
x4
|---------------------------------------|
|---------------------------------------|
|55-5-55-5-55-5-55-5--------------------|
|55-5-55-5-55-5-55-5-33-3-33-3-33-3-33-3|
|33-3-33-3-33-3-33-3-33-3-33-3-33-3-33-3|
|--------------------11-1-11-1-11-1-11-1|

Bridge
|-------------------------------------------|
|-------------------------------------------|
|-------------------------------------------|
|7-7-5-5-3-3-3-3-7-7-5-5-3-3-3-3-3-7-77-5-55|
|7-7-5-5-3-3-3-3-7-7-5-5-3-3-3-3-3-7-77-5-55|
|5-5-3-3-1-1-1-1-5-5-3-3-1-1-1-1-1-5-55-3-33|

Some Other Part
Rhythm
|-----------------------------------------------------------|
|-----------------------------------------------------------|
|5--------------------------------5-------------------------|
|5(x16)-3------7-----5-----3------5(x16)-3------7-----5-----|
|3------3(x16)-7(x8)-5(x8)-3(x16)-3------3(x16)-7(x8)-5(x8)-|
|-------1------5-----3-----1-------------1------5-----3-----|

Lead
|-----------------------------------------------------------|
|-----------------------------------------------------------|
|--9-7----5-7----9-7---7-9-----------9-7----7-9---9-7---7-9-|
|--x-x----x-x----x-x---x-x-----------x-x----x-x---x-x---x-x-|
|--7-5----3-5----7-5---5-7-----------7-5----5-7---7-5---5-7-|
|-----------------------------------------------------------|

After That
|----------------------|
|----------------------|
|55-55-5-77-77-7-5~----|
|33-33-3-55-55-5-5~----|
|----------------3~----|
|----------------------|

The next part
|--------------------------------|  |-------------------------|
|8-8-8-8-5-5-6-6-3-3-3-3-3-3-3-3-|  |8-8-8-8-5-5-6-6----------|
|-5-5-5-5-5-5-5-5-5-5-5-5-5-5-5-5|  |-5-5-5-5-5-5-5-5---------|
|--------------------------------|x2|-------------------------|
|--------------------------------|  |-------------------------|
|--------------------------------|  |----------------pickslide|

Outro
|------------------|  |---------------------------
|------------------|  |---------------------------
|5-----7-----------|  |5-----7--------------------
|5(x8)-7(x8)-3-----|x3|5(x8)-7(x8)-33-33-33-33-5-5
|3-----5-----3(x16)|  |3-----5-----33-33-33-33-5-5
|------------1-----|  |------------11-11-11-11-3-3

End On
|------|
|------|
|5~----|
|5~----|
|3~----|
|------|
Добавлено: 24.11.2013
Другие материалы по этой песне:
  • Аккорды и текст

Страница создана 30.10.2013
http://primanota.ru/anti-flag-2/cities-burn-chords.htm
Привет, Гость.
Предлагаем пройти революционный курс по гитаре.
Подарок от PrimaNota.Ru, забирай!