PrimaNota.ru - самый крупный в мире бесплатный архив песенных текстов, аккордов, табулатур и нот


Anti Flag - Antithetic To The Cure - текст песни, таба, бас-таба, видео

Регистрация Запомнить меня
Войти через:  Facebook Google Twitter Vk Yandex Mail.ru

Anti Flag - Antithetic To The Cure - текст песни, таба, бас-таба, видео

Печатать
Просмотров: 132
YES ANOTHER ANTI-FLAG SONG TABBED OUT FOR YOU GUYS I DIDNT SEE IT SO I TABBED IT OUT AND 
THINK YOU WILL LIKE IT SO PLEASE RATE!!!


INTRO-
e-----------------------|
B-----------------------|
G--8~---------8~--------|
D--8~---------8~--------|
A--6~---------6~--------|
E-----------------------|
BASS THEN...

e----------------------------------------------9's&11's-------|>2 times
B-------------------------------------------------------------|
G--8888888888888888-10-10-10-10-10-10-10-10-1111111111111111--|
D--8888888888888888-8--8--8--8--8--8--8--8--9-9-9-9-9-9-9-9---|
A--6666666666666666-------------------------------------------|
E-------------------------------------------------------------|
VERSE I
e-------------------------------------|>4 times
B------p.m.----------not palm muted---|
G--8888888888888888-------------------|
D--8888888888888888-99999999-66666666-|
A--6666666666666666-99999999-66666666-|
E-------------------77777777-44444444-|
THEN...

e------------------------------|>1 time
B------------------------------|
G---------------------10(bend)-|
D--8888888888888888------------|
A--8888888888888888------------|
E--6666666666666666------------|

CHORUS
 cuz' youre anti  anti
e------------------------------------------|>2 times
B------------------------------------------|
G-----------8--8--6--6---------------------|
D-----------8--8--6--6--99999999--66666666-|
A-----------6--6--4--4--99999999--66666666-|
E-----------------------77777777--44444444-|

PREVERSE
e-------------------------------------|>2 times
B-------------------------------------|
G--8888888888888888-------------------|
D--8888888888888888-99999999-66666666-|
A--6666666666666666-99999999-66666666-|
E-------------------77777777-44444444-|

VERSE II
e----------------------------------|>1 time
B------p.m.------------------------|
G--8888888888888888-6-6-9-66666666-|
D--8888888888888888-6-6-9-66666666-|
A--6666666666666666-4-4-7-44444444-|
E----------------------------------|

SAME VERSE AS ABOVE > ONLY 3 TIMES
THEN...

e----------------------------------|
B----------------------------------|
G----------------------------------|
D--88888888888888888---------------|
A--88888888888888888---|
E--66666666666666666---------------|

CHORUS > 4 TIMES AND END ON...
e-----------------------|
B-----------------------|
G--8~-----------------8-|
D--8~-----------------8-|
A--6~-8~-9~-11~-13~---6-|
E-----------------------|

"THERE IS NO ARDAR WHERE YOU GO"
e-------|
B-------|
G--8--8-|
D--8--8-|
A--6--6-|
E-------|

BRIDGE
"HOW DO YOU F###ING SLEEP" and so on..
e-----------------------------------------------|
B-----------------------------------------------|
G--6--8--8--8----10-10-10-10---11-11-11-11---13-|
D--x--x--x--x----x--x--x--x----x--x--x--x-----x-|
A--6--6--6--6----8--8--8--8----9--9--9--9----11-|
E-----------------------------------------------|

THEN...
e-------------------------------------|>2 times
B-------------------------------------|
G--8888888888888888-------------------|
D--8888888888888888-99999999-66666666-|
A--6666666666666666-99999999-66666666-|
E-------------------77777777-44444444-|

ENDING OR OUTRO (KINDA)
"HOW DO YOU F###ING SLEEP"...
e--------------------------|>4 times
B--------------------------|
G--8--8-10-10-11-11-13-13--|
D--x--x--x--x--x--x--x--x--|
A--6--6--8--8--9--9-11-11--|
E--------------------------|

END
and that's pretty much it pretty easy listen to the song for the timing so please rate 
if you have any questions e-mail me at HarlShan5@aol.com
Добавлено: 08.07.2013
Другие материалы по этой песне:
  • Аккорды и текст

Страница создана 15.07.2012
http://primanota.ru/anti-flag-2/antithetic-to-the-cure-chords.htm
Привет, Гость.
Предлагаем пройти революционный курс по гитаре.
Подарок от PrimaNota.Ru, забирай!