PrimaNota.ru - самый крупный в мире бесплатный архив песенных текстов, аккордов, табулатур и нот


Anthrax - Black Lodge - текст песни, таба, бас-таба, видео

Регистрация Запомнить меня
Войти через:  Facebook Google Twitter Vk Yandex Mail.ru

Anthrax - Black Lodge - текст песни, таба, бас-таба, видео

Печатать
Просмотров: 104
Авторы: Angelo Badalamenti
Авторы музыки: Charlie Benante, John Bush, Scott Ian
Авторы текста: Charlie Benante, John Bush, Scott Ian
As recorded by Anthrax
(From the 1993 Album SOUND OF WHITE NOISE)

Transcribed by Mike Sheehan
	

Words and Music by Charlie Benante, Scott Ian, John Bush & Frank Bello

E5
0 2 x x x x
	
Em
0 2 2 0 0 0
	
Em7
x x 2 0 3 0
	
F5
1 3 3 x x x

G5
3 5 x x x x
	
G
3 5 5 4 3 3
	
Bb5
x 1 3 x x x
	
C5
x 3 5 x x x

Gtr I (Eb Ab Db Gb Bb Eb) - 'Scott Ian Clean'
Gtr II (Eb Ab Db Gb Bb Eb) - 'Dan Spitz Clean'
Gtr III (Eb Ab Db Gb Bb Eb) - 'Scott Ian Distortion'
Gtr IV (Eb Ab Db Gb Bb Eb) - 'Dan Spitz Distortion'
Gtr V (Eb Ab Db Gb Bb Eb) - 'Lead'
Gtr VI (Eb Ab Db Gb Bb Eb) - 'Lead 2'

 Intro
  Q=105
  Em    E5                      Em    E5
 4/4
  Gtr I
   W            +W               W            +W
|-^0----------|-(0)-----------|-^0----------|-(0)-----------|
|-^3----------|-(3)-----------|-^3----------|-(3)-----------|
|-^0----------|-(0)-----------|-^0----------|-(0)-----------|
|-^2----------|-(2)-----------|-^2----------|-(2)-----------|
|-------------|---------------|-------------|---------------|
|-------------|---------------|-------------|---------------|
|
| Gtr II
|  H    Q  Q     Q   Q  Q  Q     H    Q  Q     Q   Q  Q  Q
|-^0----------|---------------|-^0----------|---------------|
|-^0----------|---------------|-^0----------|---------------|
|-^0----------|---------------|-^0----------|---------------|
|-^2----------|---------------|-^2----------|---------------|
|-^2----2--2--|--2---2--2--2--|-^2----2--2--|--2---2--2--2--|
|-^0----0--0--|--0---0--0--0--|-^0----0--0--|--0---0--0--0--|


    Em       E5                          Em       E5
     E E E E E E E E   E E E E E E E E    E E E E E E E E   E E E E E E E E
||-------------------|-----------------|------------------|-------------------||
||o------------------|-----------------|------------------|------------------o||
||-------------------|-----------------|------------------|-------------------||
||-------0-----0---0-|-----0-----0-----|------0-----0---0-|-----0-----0-------||
||o----2-----2-------|---2-----2-------|----2-----2-------|---2-----2--------o||
||---0-----0-----0---|-0-----0-----1-3-|--0-----0-----0---|-0-----0-----1-3---||
|
|    H       Q   Q     Q   Q   Q   Q      H       Q   Q     Q   Q   Q   Q
||--^0---------------|-----------------|-^0---------------|-------------------||
||o-^0---------------|-----------------|-^0---------------|------------------o||
||--^0---------------|-----------------|-^0---------------|-------------------||
||--^2---------------|-----------------|-^2---------------|-------------------||
||o-^2-------2---2---|-2---2---2---2---|-^2-------2---2---|-2---2---2---2----o||
||--^0-------0---0---|-0---0---0---0---|-^0-------0---0---|-0---0---0---0-----||


 Verse
  Em       E5
   E E E E E E E E   E E E E a E E E E
|------------------|-------------------|
|--------0-0-----0-|-------0-0h1-----3-|
|------------0-----|-------------0-----|
|------2-------2---|-----2---------2---|
|----2-------------|---2---------------|
|--0---------------|-0-----------------|
|
|  H       Q   Q     Q   Q     Q   Q
|-^0---------------|-------------------|
|-^0---------------|-------------------|
|-^0---------------|-------------------|
|-^2---------------|-------------------|
|-^2-------2---2---|-2---2-----2---2---|
|-^0-------0---0---|-0---0-----0---0---|


  Em       E5
   E E E E E E E E   E E E E a E E E E
|------------------|---------------------|
|--------0-0-----0-|-------0-0h1-----3---|
|------------0-----|-------------0-------|
|------2-------2---|-----2---------2-----|
|----2-------------|---2-----------------|
|--0---------------|-0-------------------|
|
|  H       Q   Q     Q   Q     Q   Q
|-^0---------------|---------------------|
|-^0---------------|---------------------|
|-^0---------------|---------------------|
|-^2---------------|---------------------|
|-^2-------2---2---|-2---2-----2---2-----|
|-^0-------0---0---|-0---0-----0---0-----|


  Em       E5
   E E E E E E E E   E E E E a E E E E
|------------------|-------------------|
|--------0-0-----0-|-------0-0h1-----3-|
|------------0-----|-------------0-----|
|------2-------2---|-----2---------2---|
|----2-------------|---2---------------|
|--0---------------|-0-----------------|
|
|  H       Q   Q     Q   Q     Q   Q
|-^0---------------|-------------------|
|-^0---------------|-------------------|
|-^0---------------|-------------------|
|-^2---------------|-------------------|
|-^2-------2---2---|-2---2-----2---2---|
|-^0-------0---0---|-0---0-----0---0---|


  Em       E5
   E E E E E E E E   E E E E a E E E E
|------------------|---------------------||
|--------0-0-----0-|-------0-0h1-----3---||
|------------0-----|-------------0-------||
|------2-------2---|-----2---------2-----||
|----2-------------|---2-----------------||
|--0---------------|-0-------------------||
|
|  H       Q   Q     Q   Q     Q   Q
|-^0---------------|---------------------||
|-^0---------------|---------------------||
|-^0---------------|---------------------||
|-^2---------------|---------------------||
|-^2-------2---2---|-2---2-----2---2-----||
|-^0-------0---0---|-0---0-----0---0-----||


    Em
     E E E E +E  E E E   +E  E E S S E E E E
||---------------------|---------------------|
||o--------3-(3)-----3-|-(3)-----3-3-3-1-0---|
||---------------------|-------------------0-|
||-------2-------------|---------------------|
||o----2-----------2---|-------2-------------|
||---0-----------0-----|-----0---------------|
|
|    W                   +W
||--^0-----------------|-(0)-----------------|
||o-^0-----------------|-(0)-----------------|
||--^0-----------------|-(0)-----------------|
||--^2-----------------|-(2)-----------------|
||o-^2-----------------|-(2)-----------------|
||--^0-----------------|-(0)-----------------|


   E E E E +E  E E E   +E  E E S S E E E E
|--------------------|----------------------|
|--------3-(3)-----3-|-(3)-----3-3-3-1-0----|
|--------------------|-------------------0--|
|------0-------------|----------------------|
|----2-----------2---|-------2--------------|
|--3-----------3-----|-----3----------------|
|
|  W                   +W
|-^0-----------------|-(0)------------------|
|-^0-----------------|-(0)------------------|
|-^0-----------------|-(0)------------------|
|-^2-----------------|-(2)------------------|
|-^2-----------------|-(2)------------------|
|-^0-----------------|-(0)------------------|


   E E E E +E  E E E   +E  E E S S E E E E
|--------------------|---------------------|
|--------3-(3)-----3-|-(3)-----3-3-3-1-0---|
|--------------------|-------------------0-|
|------2-------------|---------------------|
|----2-----------2---|-------2-------------|
|--0-----------0-----|-----0---------------|
|
|  W                   +W
|-^0-----------------|-(0)-----------------|
|-^0-----------------|-(0)-----------------|
|-^0-----------------|-(0)-----------------|
|-^2-----------------|-(2)-----------------|
|-^2-----------------|-(2)-----------------|
|-^0-----------------|-(0)-----------------|


   E E E E +E  E E E   +E  E E S S E E E E
|--------------------|-----------------------||
|--------3-(3)-----3-|-(3)-----3-3-3-1-0-1---||
|--------------------|-----------------------||
|------0-------------|-----------------------||
|----2-----------2---|-------2---------------||
|--3-----------3-----|-----3-----------------||
|
|  W                   +W
|-^0-----------------|-(0)-------------------||
|-^0-----------------|-(0)-------------------||
|-^0-----------------|-(0)-------------------||
|-^2-----------------|-(2)-------------------||
|-^2-----------------|-(2)-------------------||
|-^0-----------------|-(0)-------------------||


 Pre Chorus
  N.C.
                   2/4       4/4
  Gtr I
  E E E E E E E E   E E E E   E Q   Q   Q   E   +E  Q   Q   Q   E
|-----------------|---------|-----------------|-------------------|
|-----------------|---------|-----------------|-------------------|
|-----0-------0---|---------|-----------------|-------------------|
|---1-------0-----|-----0---|-------3-------0-|-(0)-----3-------0-|
|-3-----3-1-----1-|---1-----|---3-------3-----|-----3-------3-----|
|-----------------|-3-----3-|-1---1---1---1---|--1----1---1---1---|
                              E E E E E E E E    E  E E E E E E E


                   2/4       4/4
  E E E E E E E E   E E E E   E Q   Q   Q   E   +E  Q   Q   Q   E
|-----------------|---------|-----------------|-------------------||
|-----------------|---------|-----------------|-------------------||
|-----0-------0---|---------|-----------------|-------------------||
|---1-------0-----|-----0---|-------3-------0-|-(0)-----3-------0-||
|-3-----3-1-----1-|---1-----|---3-------3-----|-----3-------3-----||
|-----------------|-3-----3-|-1---1---1---1---|--1----1---1---1---||
                              E E E E E E E E    E  E E E E E E E


 Verse
  1.
  Em                 G
  Gtr I
   E E E E E E E E    E E E E +E  E E E
|------------------|--------------0-----|
|--------0-0-----1-|--3-----3-(3)---3---|
|------------0-----|----0-------------0-|
|------2-------2---|------0-------------|
|----2-------------|--------------------|
|--0---------------|--------------------|
|
| Gtr II
|  W                  W
|-^0---------------|-^3-----------------|
|-^0---------------|-^3-----------------|
|-^0---------------|-^4-----------------|
|-^2---------------|-^5-----------------|
|-^2---------------|-^5-----------------|
|-^0---------------|-^3-----------------|


  Em                 G
   E E E E E E E E    E E E E +E  E E E
|------------------|--------------0-----|
|--------0-0-----1-|--3-----3-(3)---3---|
|------------0-----|----0-------------0-|
|------2-------2---|------0-------------|
|----2-------------|--------------------|
|--0---------------|--------------------|
|
|  W                  W
|-^0---------------|-^3-----------------|
|-^0---------------|-^3-----------------|
|-^0---------------|-^4-----------------|
|-^2---------------|-^5-----------------|
|-^2---------------|-^5-----------------|
|-^0---------------|-^3-----------------|


  Em                 G
   E E E E E E E E    E E E E +E  E E E
|------------------|--------------0-----|
|--------0-0-----1-|--3-----3-(3)---3---|
|------------0-----|----0-------------0-|
|------2-------2---|------0-------------|
|----2-------------|--------------------|
|--0---------------|--------------------|
|
|  W                  W
|-^0---------------|-^3-----------------|
|-^0---------------|-^3-----------------|
|-^0---------------|-^4-----------------|
|-^2---------------|-^5-----------------|
|-^2---------------|-^5-----------------|
|-^0---------------|-^3-----------------|


  Em                 G
   E E E E E E E E    E E E E +E  E E E
|------------------|--------------0------||
|--------0-0-----1-|--3-----3-(3)---3---o||
|------------0-----|----0-------------0--||
|------2-------2---|------0--------------||
|----2-------------|--------------------o||
|--0---------------|---------------------||
|
|  W                  W
|-^0---------------|-^3------------------||
|-^0---------------|-^3-----------------o||
|-^0---------------|-^4------------------||
|-^2---------------|-^5------------------||
|-^2---------------|-^5-----------------o||
|-^0---------------|-^3------------------||


 Pre Chorus
  2.
  N.C.                        F5
                   2/4       4/4
  Gtr I
  E E E E E E E E   E E E E   E Q   Q   Q   E   +E  Q   Q   Q   E
|-----------------|---------|-----------------|-------------------||
|-----------------|---------|-----------------|-------------------||
|-----0-------0---|---------|-----------------|-------------------||
|---1-------0-----|-----0---|-------3-------0-|-(0)-----3-------0-||
|-3-----3-1-----1-|---1-----|---3-------3-----|-----3-------3-----||
|-----------------|-3-----3-|-1---1---1---1---|--1----1---1---1---||
|                             E E E E E E E E    E  E E E E E E E
|
| Gtr III
| W                 W         E E E E E E E E    E  E E E E E E E
|-----------------|---------|-----------------|-------------------||
|-----------------|---------|-----------------|-------------------||
|-----------------|---------|-----------------|-------------------||
|-----------------|---------|-3-3-3-3-3-3-3-3-|--3--3-3-3-3-3-3-3-||
|-----------------|---------|-3-3-3-3-3-3-3-3-|--3--3-3-3-3-3-3-3-||
|-----------------|---------|-1-1-1-1-1-1-1-1-|--1--1-1-1-1-1-1-1-||


 Chorus
  Q=110
  $
  N.C.                       F5
  Gtr III
  Q  Q  H      Q  Q  Q  Q    E Q   Q   Q   E   +E  Q   Q   Q   E
|------------|-------------|-----------------|-------------------|
|------------|-------------|-----------------|-------------------|
|------------|-------------|-----------------|-------------------|
|------------|-------------|-------3-------0-|-(0)-----3-------0-|
|-6--5-------|-6--5--------|---3-------3-----|-----3-------3-----|
|-------6----|-------6--8--|-1---1---1---1---|--1----1---1---1---|
|                            E E E E E E E E    E  E E E E E E E
|
| Gtr IV
| Q  Q  H      Q  Q  Q  Q    W                 +W
|------------|-------------|-----------------|-------------------|
|------------|-------------|-----------------|-------------------|
|------------|-------------|-----------------|-------------------|
|------------|-------------|-----------------|-------------------|
|-6--5-------|-6--5--------|-3---------------|-(3)---------------|
|-------6----|-------6--8--|-1---------------|-(1)---------------|


  N.C.                       F5
  Q  Q  H      Q  Q  Q  Q    Q.   S S Q.   S S    Q.   S S Q.   S S
|------------|-------------|-------------------|--------------------|
|------------|-------------|-------------------|--------------------|
|------------|-------------|-------------------|--------------------|
|------------|-------------|-3----3h5-3----3h5-|--3----3h5-3----3h5-|
|-6--5-------|-6--5--------|-------------------|--------------------|
|-------6----|-------6--8--|-------------------|--------------------|
|
| Q  Q  H      Q  Q  Q  Q    W                   +W
|------------|-------------|-------------------|--------------------|
|------------|-------------|-------------------|--------------------|
|------------|-------------|-------------------|--------------------|
|------------|-------------|-------------------|--------------------|
|-6--5-------|-6--5--------|-3-----------------|-(3)----------------|
|-------6----|-------6--8--|-1-----------------|-(1)----------------|


  N.C.                       F5
  Q  Q  H      Q  Q  Q  Q    E Q   Q   Q   E   +E  Q   Q   Q   E
|------------|-------------|-----------------|-------------------|
|------------|-------------|-----------------|-------------------|
|------------|-------------|-----------------|-------------------|
|------------|-------------|-------3-------0-|-(0)-----3-------0-|
|-6--5-------|-6--5--------|---3-------3-----|-----3-------3-----|
|-------6----|-------6--8--|-1---1---1---1---|--1----1---1---1---|
|                            E E E E E E E E    E  E E E E E E E
|
| Q  Q  H      Q  Q  Q  Q    W                 +W
|------------|-------------|-----------------|-------------------|
|------------|-------------|-----------------|-------------------|
|------------|-------------|-----------------|-------------------|
|------------|-------------|-----------------|-------------------|
|-6--5-------|-6--5--------|-3---------------|-(3)---------------|
|-------6----|-------6--8--|-1---------------|-(1)---------------|


                                                         To Coda
  N.C.                       F5                               N.C.
  Q  Q  H      Q  Q  Q  Q    Q.   S S Q.   S S    Q.   S S Q  E E
|------------|-------------|-------------------|-------------------||
|------------|-------------|-------------------|-------------------||
|------------|-------------|-------------------|-------------------||
|------------|-------------|-3----3h5-3----3h5-|--3----3h5-3-------||
|-6--5-------|-6--5--------|-------------------|-------------------||
|-------6----|-------6--8--|-------------------|--------------1-3--||
|
| Q  Q  H      Q  Q  Q  Q    W                   +H.          E E
|------------|-------------|-------------------|-------------------||
|------------|-------------|-------------------|-------------------||
|------------|-------------|-------------------|-------------------||
|------------|-------------|-------------------|-------------------||
|-6--5-------|-6--5--------|-3-----------------|-(3)---------------||
|-------6----|-------6--8--|-1-----------------|-(1)----------1-3--||


 Interlude
  E5                              N.C.  E5
  W                 +H.           E E    W                 +W
|-----------------|-------------------|------------------|-------------------|
|-----------------|-------------------|------------------|-------------------|
|-----------------|-------------------|------------------|-------------------|
|-----------------|-------------------|------------------|-------------------|
|-2---------------|-(2)---------------|--2---------------|-(2)---------------|
|-0---------------|-(0)-----------1-3-|--0---------------|-(0)---------------|
|
| PM-----------------------------------------------------------------------|
| E E E E E E E E    E  E E E E E E E    E E E E E E E E    E  E E E E E E E
|-----------------|-------------------|------------------|-------------------|
|-----------------|-------------------|------------------|-------------------|
|-----------------|-------------------|------------------|-------------------|
|-----0-----0---0-|-------0-----0-----|------0-----0---0-|-------0-----0-----|
|---2-----2-------|-----2-----2-------|----2-----2-------|-----2-----2-------|
|-0-----0-----0---|--0------0-----1-3-|--0-----0-----0---|--0------0-----1-3-|
|
| Gtr I
| W                  W                   W                 +W
|-----------------|-------------------|-^0---------------|-(0)---------------|
|-----------------|-------------------|-^3---------------|-(3)---------------|
|-----------------|-------------------|-^0---------------|-(0)---------------|
|-----------------|-------------------|-^2---------------|-(2)---------------|
|-----------------|-------------------|------------------|-------------------|
|-----------------|-------------------|------------------|-------------------|


  E
  W                     +W
|---------------------|---------------------|
|---------------------|---------------------|
|---------------------|---------------------|
|---------------------|---------------------|
|---------------------|---------------------|
|-0-------------------|-(0)-----------------|
|
| PM-----------------------------------------
| E E E E   E E E E      E  E E E   E E E E
|---------------------|---------------------|
|---------------------|---------------------|
|---------------------|---------------------|
|-----0-------0---0---|-------0-------0-----|
|---2-------2---------|-----2-------2-------|
|-0-----0-------0-----|--0------0-------1-3-|
|
| Gtr V
| Q   E S S Q   E S S    Q    E S S E E E E
|---------------------|---------------------|
|---------------------|---------------------|
|-------7-7-7-----7-7-|--7------7-7-7-5-4---|
|-------5-5-5-----5-5-|--5------5-5-5-3-2-5-|
|---------------------|-------------------5-|
|---------------------|---------------------|


  G5
  W                      +W
|----------------------|----------------------|
|----------------------|----------------------|
|----------------------|----------------------|
|----------------------|----------------------|
|-5--------------------|-(5)------------------|
|-3--------------------|-(3)------------------|
|
|------------------------------------------|
| E E E E   E  E E E      E  E E E   E E E  E
|----------------------|----------------------|
|----------------------|----------------------|
|----------------------|----------------------|
|-----0--------0---0---|-------0-------0------|
|---2-------2----------|-----2-------2--------|
|-3-----3--------3-----|--3------3-------1--3-|
|
| Q   E S S Q    E S S    Q    E S S E E E  E
|----------------------|----------------------|
|----------------------|---------------5-7--8-|
|-------7-7-7\-----7-7-|--7\-----7-7-7--------|
|-------5-5-5\-----5-5-|--5\-----5-5-5-7-9-10-|
|-5--------------------|----------------------|
|-3--------------------|----------------------|


  E
    W                      +W
|------------------------|---------------------|
|------------------------|---------------------|
|------------------------|---------------------|
|------------------------|---------------------|
|------------------------|---------------------|
|---0--------------------|-(0)-----------------|
|
|   PM------------------------------------------
|   E  E E E   E E E E      E  E E E   E E E E
|------------------------|---------------------|
|------------------------|---------------------|
|------------------------|---------------------|
|--------0-------0---0---|-------0-------0-----|
|------2-------2---------|-----2-------2-------|
|---0------0-------0-----|--0------0-------1-3-|
|
|  +Q    E S S Q   E S S    Q    E S S E E E E
|------------------------|---------------------|
|--(8)-------------------|---------------------|
|----------7-7-7-----7-7-|--7------7-7-7-5-4---|
|-(10)-----5-5-5-----5-5-|--5------5-5-5-3-2-5-|
|------------------------|-------------------5-|
|------------------------|---------------------|


  G5
  W                      +W
|----------------------|----------------------||
|----------------------|----------------------||
|----------------------|----------------------||
|----------------------|----------------------||
|-5--------------------|-(5)------------------||
|-3--------------------|-(3)------------------||
|
|------------------------------------------|
| E E E E   E  E E E      E  E E E   E E E  E
|----------------------|----------------------||
|----------------------|----------------------||
|----------------------|----------------------||
|-----0--------0---0---|-------0-------0------||
|---2-------2----------|-----2-------2--------||
|-3-----3--------3-----|--3------3-------1--3-||
|
| Q   E S S Q    E S S    Q    E S S E E E  E
|----------------------|----------------------||
|----------------------|---------------5-7--8-||
|-------7-7-7\-----7-7-|--7\-----7-7-7--------||
|-------5-5-5\-----5-5-|--5\-----5-5-5-7-9-10-||
|-5--------------------|----------------------||
|-3--------------------|----------------------||


 Verse
  N.C.
  Gtr IV
    PM-------------------------------------
    E  E E E E E E E     E  E E E E E E E
|--------------------|--------------------|
|--------------------|--------------------|
|--------------------|--------------------|
|--------0-----0---0-|--------0-----0-----|
|------2-----2-------|------2-----2-------|
|---0------0-----0---|---0------0-----1-3-|
|
| Gtr V
|  +W                   +W
|--------------------|--------------------|
|--(8)---------------|--(8)---------------|
|--------------------|--------------------|
|-(10)---------------|-(10)---------------|
|--------------------|--------------------|
|--------------------|--------------------|


 ---------------------------------------|
    E  E E E E E E E     E  E E E E E E E
|--------------------|--------------------|
|--------------------|--------------------|
|--------------------|--------------------|
|--------0-----0---0-|--------0-----0-----|
|------2-----2-------|------2-----2-------|
|---3------3-----3---|---3------3-----1-3-|
|
|   >
|  +W                   +W
|--------------------|--------------------|
|--(8)---------------|--(8)---------------|
|--------------------|--------------------|
|-(10)---------------|-(10)---------------|
|--------------------|--------------------|
|--------------------|--------------------|


  Gtr I
  E E E E +E  E E E   +E  E E S S E E E E
|-------------------|---------------------|
|-------3-(3)-----3-|-(3)-----3-3-3-1-0---|
|-------------------|-------------------0-|
|-----2-------------|---------------------|
|---2-----------2---|-------2-------------|
|-0-----------0-----|-----0---------------|
|
| Gtr IV
| PM---------------------------------------
| E E E E  E  E E E    E  E E E   E E E E
|-------------------|---------------------|
|-------------------|---------------------|
|-------------------|---------------------|
|-----0-------0---0-|-------0-------0-----|
|---2------2--------|-----2-------2-------|
|-0-----0-------0---|--0------0-------1-3-|


  E E E E +E  E E E   +E  E E S S E E E E
|-------------------|-----------------------||
|-------3-(3)-----3-|-(3)-----3-3-3-1-0-----||
|-------------------|-------------------0---||
|-----0-------------|-----------------------||
|---2-----------2---|-------2---------------||
|-3-----------3-----|-----3-----------------||
|
|---------------------------------------|
| E E E E  E  E E E    E  E E E   E E E E
|-------------------|-----------------------||
|-------------------|-----------------------||
|-------------------|-----------------------||
|-----0-------0---0-|-------0-------0-------||
|---2------2--------|-----2-------2---------||
|-3-----3-------3---|--3------3-------1-3---||


 Bridge
  C5       Bb5       G5        F5
                    2/4       4/4
  Gtrs III, IV
    PM|      PM|       PM|       PM------------------------------|
  E E E  E E E E E   E E E E   E E E E E E E E    E  E E E E E E E
|------------------|---------|-----------------|-------------------|
|------------------|---------|-----------------|-------------------|
|------------------|---------|-----------------|-------------------|
|-5------5-3-----3-|---------|-----------------|-------------------|
|-3-3-3--3-1-1-1-1-|-5-----5-|-3---------------|-------------------|
|------------------|-3-3-3-3-|-1-1-1-1-1-1-1-1-|--1--1-1-1-1-1-1-1-|
|
| Gtr V
| Q   E  E Q   E E   Q   E E   W                 +W
|------------------|---------|-----------------|-------------------|
|-8---8-10-6---6-8-|-3---3-4-|-----------------|-------------------|
|-8---8-10-7---7-8-|-3---3-5-|-5---------------|-(5)---------------|
|------------------|---------|-3---------------|-(3)---------------|
|------------------|---------|-----------------|-------------------|
|------------------|---------|-----------------|-------------------|


  C5       Bb5       G5        F5
                    2/4       4/4
    PM|      PM|       PM|        PM-----------------------------------|
  E E E  E E E E E   E E E E   E  E E  E   E  E E E     E  E E E E E E E
|------------------|---------|----------------------|--------------------|
|------------------|---------|----------------------|--------------------|
|------------------|---------|----------------------|--------------------|
|-5------5-3-----3-|---------|----------------------|--------------------|
|-3-3-3--3-1-1-1-1-|-5-----5-|-3--------------------|--------------------|
|------------------|-3-3-3-3-|-1--1-1--1---1--1-1-1-|---1--1-1-1-1-1-1-1-|
|
| Q   E  E Q   E E   Q   E E   Q.      E  +H           +W
|------------------|---------|----------------------|--------------------|
|-8---8-10-6---6-8-|-3---3-4-|----------------------|--------------------|
|-8---8-10-7---7-8-|-3---3-5-|-5------10-(10)-------|-(10)---------------|
|------------------|---------|-3------10-(10)-------|-(10)---------------|
|------------------|---------|----------------------|--------------------|
|------------------|---------|----------------------|--------------------|


  C5        Bb5       G5
                     2/4
     PM|      PM|       PM|
  E  E E  E E E E E   E E E E
|-------------------|---------|
|-------------------|---------|
|-------------------|---------|
|-5-------5-3-----3-|---------|
|-3--3-3--3-1-1-1-1-|-5-----5-|
|-------------------|-3-3-3-3-|
|
| E  E E  E Q   E E   E E E E
|-------------------|---------|
|-8-10-8-10-6---6-8-|-3-4-3-4-|
|-8-10-8-10-7---7-8-|-3-5-3-5-|
|-------------------|---------|
|-------------------|---------|
|-------------------|---------|


  F5
 4/4
     PM-----------------------------------------|
  E  E E  E   E  E E  E     E  E E  E   E  E  E E
|-----------------------|-------------------------|
|-----------------------|-------------------------|
|-----------------------|-------------------------|
|-----------------------|-------------------------|
|-3---------------------|-------------------------|
|-1--1-1--1---1--1-1--1-|---1--1-1--1---1--1--1-1-|
|
| Q.      E  +Q.      E    +Q.      E  +Q     Q
|-----------------------|-------------------------|
|-----------------------|-------------------------|
|-5------10-(10)-----10-|-(10)-----10-(10)---10---|
|-3------10-(10)-----10-|-(10)-----10-(10)---10---|
|-----------------------|-------------------------|
|-----------------------|-------------------------|


                                                              D.S. al Coda
  C5        Bb5       G5        F5
                     2/4       4/4
     PM|      PM|       PM|
  E  E E  E E E E E   E E E E   E  E E  E   E  E E E     E  E E E E E E E
|-------------------|---------|----------------------|---------------------||
|-------------------|---------|----------------------|---------------------||
|-------------------|---------|----------------------|---------------------||
|-5-------5-3-----3-|---------|----------------------|---------------------||
|-3--3-3--3-1-1-1-1-|-5-----5-|-3--3-3--3---3--3-3-3-|---3--3-3-3-3-3-x-x--||
|-------------------|-3-3-3-3-|-1--1-1--1---1--1-1-1-|---1--1-1-1-1-1-x-x--||
|
| E  E E  E Q   E E   Q   E E   Q.      E  +H           +W
|-------------------|---------|----------------------|---------------------||
|-8-10-8-10-6---6-8-|-3---3-4-|----------------------|---------------------||
|-8-10-8-10-7---7-8-|-3---3-5-|-5------10-(10)-------|-(10)----------------||
|-------------------|---------|-3------10-(10)-------|-(10)----------------||
|-------------------|---------|----------------------|---------------------||
|-------------------|---------|----------------------|---------------------||


   Outro
    &
    E5                               F5G5
    Gtr I
     E E E E E E E E    E  E E E E E E E
||-------------------|-------------------|
||o------------------|-------------------|
||-------------------|-------------------|
||-------0-----0---0-|-------0-----0-----|
||o----2-----2-------|-----2-----2-------|
||---0-----0-----0---|--0------0-----1-3-|
|
|   Gtr IV
|    W                 +H.           E E
||-------------------|-------------------|
||o------------------|-------------------|
||-------------------|-------------------|
||-------------------|-------------------|
||o--2---------------|-(2)-----------3-5-|
||---0---------------|-(0)-----------1-3-|
|
|   Gtr II
|    W                 +W
||--^0---------------|-(0)---------------|
||o-^3---------------|-(3)---------------|
||--^0---------------|-(0)---------------|
||--^2---------------|-(2)---------------|
||o------------------|-------------------|
||-------------------|-------------------|


  E5                               F5G5
   E E E E E E E E    E  E E E E E E E   3x
|------------------|---------------------||
|------------------|--------------------o||
|------------------|---------------------||
|------0-----0---0-|-------0-----0-------||
|----2-----2-------|-----2-----2--------o||
|--0-----0-----0---|--0------0-----1-3---||
|
|  W                 +H.           E E   3x
|------------------|---------------------||
|------------------|--------------------o||
|------------------|---------------------||
|------------------|---------------------||
|--2---------------|-(2)-----------3-5--o||
|--0---------------|-(0)-----------1-3---||
|
|  W                 +W                  3x
|-^0---------------|-(0)-----------------||
|-^3---------------|-(3)----------------o||
|-^0---------------|-(0)-----------------||
|-^2---------------|-(2)-----------------||
|------------------|--------------------o||
|------------------|---------------------||


  E5
  Gtr IV
                            >
   W          +W           +W           +W
|-----------|------------|------------|--------*|
|-----------|------------|------------|--------*|
|-----------|------------|------------|--------*|
|-----------|------------|------------|--------*|
|--2--------|-(2)--------|-(2)--------|-(2)----*|
|--0--------|-(0)--------|-(0)--------|-(0)----*|
|
| Gtr II
|  W          +W           +W           +W
|-^0--------|-(0)--------|-(0)--------|-(0)----*|
|-^3--------|-(3)--------|-(3)--------|-(3)----*|
|-^0--------|-(0)--------|-(0)--------|-(0)----*|
|-^2--------|-(2)--------|-(2)--------|-(2)----*|
|-^2--------|------------|------------|--------*|
|-^0--------|------------|------------|--------*|



Duration Legend
---------------
W - whole; H - half; Q - quarter; E - 8th; S - 16th; T - 32nd; X - 64th; a - acciaccatura
+ - note tied to previous; . - note dotted; .. - note double dotted
Uncapitalized letters represent notes that are staccato (1/2 duration)
Irregular groupings are notated above the duration line
Duration letters will always appear directly above the note/fret number it represents the
duration for.  Duration letters with no fret number below them represent rests.  Multi-
bar rests are notated in the form Wxn, where n is the number of bars to rest for.  Low
melody durations appear below the staff

Tablature Legend
----------------
 h   - hammer-on
 p   - pull-off
 b   - bend
 pb  - pre-bend
 r   - bend release (if no number after the r, then release immediately)
 /\  - slide into or out of (from/to "nowhere")
 s   - legato slide
 S   - shift slide
 - natural harmonic
[n]  - artificial harmonic
n(n) - tapped harmonic
 ~   - vibrato
 tr  - trill
 T   - tap
 TP  - trem. picking
 PM  - palm muting
\n/  - tremolo bar dip; n = amount to dip
 \n  - tremolo bar down
 n/  - tremolo bar up
/n\  - tremolo bar inverted dip
 =   - hold bend; also acts as connecting device for hammers/pulls
 <> - volume swell (louder/softer)
 x   - on rhythm slash represents muted slash
 o   - on rhythm slash represents single note slash

Misc Legend
-----------
 |  - bar
||  - double bar
||o - repeat start
o|| - repeat end
*|  - double bar (ending)
 :  - bar (freetime)
 $  - Segno
 &  - Coda
Tempo markers -  = BPM(8/16=s8/s16), where s8 = swing 8ths, s16 = swing 16ths

Добавлено: 11.10.2013
Другие материалы по этой песне:

Страница создана 17.05.2012
http://primanota.ru/anthrax/black-lodge-chords.htm
Привет, Гость.
Предлагаем пройти революционный курс по гитаре.
Подарок от PrimaNota.Ru, забирай!