PrimaNota.ru - самый крупный в мире бесплатный архив песенных текстов, аккордов, табулатур и нот


Anthrax - Aftershock - текст песни, таба, видео

Регистрация Запомнить меня
Войти через:  Facebook Google Twitter Vk Yandex Mail.ru

Anthrax - Aftershock - текст песни, таба, видео

Печатать
Просмотров: 156
Transcribed by unregistered
	



Gtr I (E A D G B E) - 'Untitled'

    Fast Rock Q=204
   4/4
    Gtr I
                   PM                     PM
    E. S +E  E +E  E E E   E. S +E  E +E  E E E
||-----------------------|----------------------|
||o----------------------|----------------------|
||-----------------------|----------------------|
||-----------------------|----------2-(2)---2---|
||o-4--4-(4)-4-(4)-4-2-3-|-4--4-(4)-0-(0)-4---2-|
||--2--2-(2)-2-(2)-2-0-1-|-2--2-(2)-------2-----|


                 PM               PM
  E. S +E  E +E  E E E   E. S +E  E Q  E E
|----------------------|--------------------||
|----------------------|-------------------o||
|----------------------|--------------------||
|----------------------|---------------2----||
|-4--4-(4)-4-(4)-4-2-3-|-4--4-(4)-4------2-o||
|-2--2-(2)-2-(2)-2-0-1-|-2--2-(2)-2---------||


                 PM                     PM
  E. S +E  E +E  E E E   E. S +E  E +E  E E E
|----------------------|----------------------|
|----------------------|----------------------|
|----------------------|----------------------|
|----------------------|----------2-(2)---2---|
|-4--4-(4)-4-(4)-4-2-3-|-4--4-(4)-0-(0)-4---2-|
|-2--2-(2)-2-(2)-2-0-1-|-2--2-(2)-------2-----|


                 PM
  E. S +E  E +E  E E E   E. S +E  E +Q  E E
|----------------------|---------------------|
|----------------------|---------------------|
|----------------------|---------------------|
|----------------------|----------------2----|
|-4--4-(4)-4-(4)-4-2-3-|-4--4-(4)-5-(5)---2--|
|-2--2-(2)-2-(2)-2-0-1-|-2--2-(2)-3-(3)------|


                 PM                     PM
  E. S +E  E +E  E E E   E. S +E  E +E  E E E
|----------------------|----------------------|
|----------------------|----------------------|
|----------------------|----------------------|
|----------------------|----------2-(2)---2---|
|-4--4-(4)-4-(4)-4-2-3-|-4--4-(4)-0-(0)-4---2-|
|-2--2-(2)-2-(2)-2-0-1-|-2--2-(2)-------2-----|


                 PM
  E. S +E  E +E  E E E   E. S +E  E +H
|----------------------|-----------------|
|----------------------|-----------------|
|----------------------|-----------------|
|----------------------|-----------------|
|-4--4-(4)-4-(4)-4-2-3-|-4--4-(4)-5-(5)--|
|-2--2-(2)-2-(2)-2-0-1-|-2--2-(2)-3-(3)--|


    PM--------|   PM--------|
  E S S S S S S E S S S S S S
|-----------------------------|
|-----------------------------|
|-----------------------------|
|-----------------------------|
|-2-------------5-------------|
|-0-2-2-2-2-2-2-3-2-2-2-2-2-2-|


    PM----------|          PM--------|   PM--------|
  E S S S S S S E E Q    E S S S S S S E S S S S S S
|----------------------|-----------------------------|
|----------------------|-----------------------------|
|----------------------|-----------------------------|
|-------------------5--|-----------------------------|
|-2-------------5-4-3--|-2-------------5-------------|
|-0-2-2-2-2-2-2-3-2----|-0-2-2-2-2-2-2-3-2-2-2-2-2-2-|


    PM------------|          PM--------|   PM--------|     PM------------|
  E S S S S S S E E  E E   E S S S S S S E S S S S S S   E S S S S S S E E Q
|------------------------|-----------------------------|-----------------------|
|------------------------|-----------------------------|-----------------------|
|------------------------|-----------------------------|-----------------------|
|-------------------/5-4-|-----------------------------|-------------------5---|
|-2-------------5-4------|-2-------------5-------------|-2-------------5-4-3---|
|-0-2-2-2-2-2-2-3-2------|-0-2-2-2-2-2-2-3-2-2-2-2-2-2-|-0-2-2-2-2-2-2-3-2-----|


    PM--------|   PM--------|     PM------------|
  E S S S S S S E S S S S S S   E S S S S S S E E E E
|-----------------------------|-----------------------|
|-----------------------------|-----------------------|
|-----------------------------|-----------------------|
|-----------------------------|-------------------2---|
|-2-------------5-------------|-2-------------5-4---2-|
|-0-2-2-2-2-2-2-3-2-2-2-2-2-2-|-0-2-2-2-2-2-2-3-2-----|


                 PM                     PM
  E. S +E  E +E  E E E   E. S +E  E +E  E E E
|----------------------|----------------------|
|----------------------|----------------------|
|----------------------|----------------------|
|----------------------|----------2-(2)---2---|
|-4--4-(4)-4-(4)-4-2-3-|-4--4-(4)-0-(0)-4---2-|
|-2--2-(2)-2-(2)-2-0-1-|-2--2-(2)-------2-----|


                 PM
  E. S +E  E +E  E E E   E. S +E  E +Q   E E
|----------------------|---------------------|
|----------------------|---------------------|
|----------------------|---------------------|
|----------------------|-----------------2---|
|-4--4-(4)-4-(4)-4-2-3-|-4--4-(4)-5-(5)----2-|
|-2--2-(2)-2-(2)-2-0-1-|-2--2-(2)-3-(3)------|


                 PM                     PM
  E. S +E  E +E  E E E   E. S +E  E +E  E E E
|----------------------|----------------------|
|----------------------|----------------------|
|----------------------|----------------------|
|----------------------|----------2-(2)---2---|
|-4--4-(4)-4-(4)-4-2-3-|-4--4-(4)-0-(0)-4---2-|
|-2--2-(2)-2-(2)-2-0-1-|-2--2-(2)-------2-----|


                 PM
  E. S +E  E +E  E E E   E. S +E  E +H
|----------------------|-------------------|
|----------------------|-------------------|
|----------------------|-------------------|
|----------------------|-------------------|
|-4--4-(4)-4-(4)-4-2-3-|-4--4-(4)-5-(5)----|
|-2--2-(2)-2-(2)-2-0-1-|-2--2-(2)-3-(3)----|


      PM--------|   PM--------|     PM----------|
    E S S S S S S E S S S S S S   E S S S S S S E E Q
||------------------------------|----------------------|
||o-----------------------------|----------------------|
||------------------------------|----------------------|
||------------------------------|-------------------5--|
||o-2-------------5-------------|-2-------------5-4-3--|
||--0-2-2-2-2-2-2-3-2-2-2-2-2-2-|-0-2-2-2-2-2-2-3-2----|


    PM--------|   PM--------|
  E S S S S S S E S S S S S S
|-----------------------------|
|-----------------------------|
|-----------------------------|
|-----------------------------|
|-2-------------5-------------|
|-0-2-2-2-2-2-2-3-2-2-2-2-2-2-|


    PM------------|              PM------------|   PM
  E S S S S S S E E  E E         E E S S S S E E E E
|-------------------------||-||-----------------------|
|------------------------o||-||o----------------------|
|-------------------------||-||-----------------------|
|-------------------/5-4--||-||------------------4----|
|-2-------------5-4------o||-||o-----------------2----|
|-0-2-2-2-2-2-2-3-2-------||-||--0-0-0-0-0-0-0-0---0--|


  PM------------|   PM----------------|   PM----------------|
  E E S S S S E E E E   E E S S S S E E E E   E E S S S S E E Q
|---------------------|---------------------|---------------------||
|---------------------|---------------------|--------------------o||
|---------------------|---------------------|---------------------||
|-----------------5---|---------------------|-----------------7---||
|-----------------3---|-----------------5---|-----------------5--o||
|-0-0-0-0-0-0-0-0---0-|-0-0-0-0-0-0-0-0-3-0-|-0-0-0-0-0-0-0-0-----||


    E. S +E  E +H       E. S +E  E Q Q
||--------------------|------------------|
||o-------------------|------------------|
||--------------------|------------------|
||--2--4-(4)-4-(4)----|-2--4-(4)-4-4-----|
||o-0--2-(2)-2-(2)----|-0--2-(2)-2-2-4---|
||--------------------|--------------2---|


  E. S +E  E +H       E. S +E  E Q  Q
|-------------------|--------------------||
|-------------------|-------------------o||
|-------------------|--------------------||
|-2--4-(4)-4-(4)----|-2--4-(4)-6-7--6----||
|-0--2-(2)-2-(2)----|-0--2-(2)-4-5--4---o||
|-------------------|--------------------||


    $
      PM--------|   PM--------|     PM----------|
    E S S S S S S E S S S S S S   E S S S S S S E E Q
||------------------------------|----------------------|
||o-----------------------------|----------------------|
||------------------------------|----------------------|
||------------------------------|-------------------5--|
||o-2-------------5-------------|-2-------------5-4-3--|
||--0-2-2-2-2-2-2-3-2-2-2-2-2-2-|-0-2-2-2-2-2-2-3-2----|


    PM--------|   PM--------|     PM------------|
  E S S S S S S E S S S S S S   E S S S S S S E E  E E
|-----------------------------|--------------------------||
|-----------------------------|-------------------------o||
|-----------------------------|--------------------------||
|-----------------------------|-------------------/5-4---||
|-2-------------5-------------|-2-------------5-4-------o||
|-0-2-2-2-2-2-2-3-2-2-2-2-2-2-|-0-2-2-2-2-2-2-3-2--------||


    PM------------|   PM----------------|   PM-
    E E S S S S E E E E   E E S S S S E E E E
||----------------------|---------------------|
||o---------------------|---------------------|
||----------------------|---------------------|
||------------------4---|-----------------5---|
||o-----------------2---|-----------------3---|
||--0-0-0-0-0-0-0-0---0-|-0-0-0-0-0-0-0-0---0-|


 ---------------|   PM----------------|
  E E S S S S E E E E   E E S S S S E E Q
|---------------------|---------------------||
|---------------------|--------------------o||
|---------------------|---------------------||
|---------------------|-----------------7---||
|-----------------5---|-----------------5--o||
|-0-0-0-0-0-0-0-0-3-0-|-0-0-0-0-0-0-0-0-----||


    E. S +E  E +H       E. S +E  E Q  Q
||--------------------|------------------|
||o-------------------|------------------|
||--------------------|------------------|
||--2--4-(4)-4-(4)----|-2--4-(4)-4-4-----|
||o-0--2-(2)-2-(2)----|-0--2-(2)-2-2--4--|
||--------------------|---------------2--|


                             To Coda
  E. S +E  E +H       E. S +E  E Q  Q
|-------------------|------------------||
|-------------------|-----------------o||
|-------------------|------------------||
|-2--4-(4)-4-(4)----|-2--4-(4)-6-7--6--||
|-0--2-(2)-2-(2)----|-0--2-(2)-4-5--4-o||
|-------------------|------------------||


      PM----------|        PM----------|
    E E S S S S E E Q    E E S S S S E E Q
||---------------------|--------------------|
||o--------------------|--------------------|
||---------------------|--------------------|
||------------------2--|-----------------4--|
||o-2-4---------4-4-0--|-2-4---------4-4-2--|
||--0-2-2-2-0-0-2-2----|-0-2-2-2-0-0-2-2----|


    PM----------|        PM------|
  E E S S S S E E Q    E E S S S S Q  Q   4x
|--------------------|--------------------||
|--------------------|-------------------o||
|--------------------|--------------------||
|-----------------2--|--------------------||
|-2-4---------4-4-0--|-2-4---------5--4--o||
|-0-2-2-2-0-0-2-2----|-0-2-2-2-0-0-3--2---||


    PM------------|       PM--------|
    E E S S S S E E E E   E E S S S S E E E E
||----------------------|---------------------|
||o---------------------|---------------------|
||----------------------|---------------------|
||--2-4---------4-4-3-2-|-2-4---------3-2-5-4-|
||o-0-2-2-2-0-0-2-2-----|-0-2-2-2-0-0---------|
||----------------------|---------------------|


  PM------------|       PM------------|
  E E S S S S E E E E   E E S S S S E E Q
|---------------------|---------------------||
|---------------------|--------------------o||
|---------------------|---------------------||
|-2-4---------4-4-3-2-|-2-4---------4-4-7---||
|-0-2-2-2-0-0-2-2-----|-0-2-2-2-0-0-2-2-5--o||
|---------------------|---------------------||


      PM----------|        PM----------|
    E E S S S S E E Q    E E S S S S E E Q
||---------------------|--------------------|
||o--------------------|--------------------|
||---------------------|--------------------|
||------------------2--|-----------------4--|
||o-2-4---------4-4-0--|-2-4---------4-4-2--|
||--0-2-2-2-0-0-2-2----|-0-2-2-2-0-0-2-2----|


                          D.S. al Coda
    PM----------|        PM------|
  E E S S S S E E Q    E E S S S S Q  Q
|--------------------|--------------------||
|--------------------|-------------------o||
|--------------------|--------------------||
|-----------------2--|--------------------||
|-2-4---------4-4-0--|-2-4---------5--4--o||
|-0-2-2-2-0-0-2-2----|-0-2-2-2-0-0-3--2---||


    &
    E. S +E  E +H       E. S +E  E Q  Q
||--------------------|------------------|
||o-------------------|------------------|
||--------------------|------------------|
||--2--4-(4)-4-(4)----|-2--4-(4)-4-4-----|
||o-0--2-(2)-2-(2)----|-0--2-(2)-2-2--4--|
||--------------------|---------------2--|


  E. S +E  E +H       E. S +E  E Q  Q
|-------------------|------------------||
|-------------------|-----------------o||
|-------------------|------------------||
|-2--4-(4)-4-(4)----|-2--4-(4)-6-7--6--||
|-0--2-(2)-2-(2)----|-0--2-(2)-4-5--4-o||
|-------------------|------------------||


                   PM                     PM
    E. S +E  E +E  E E E   E. S +E  E +E  E E E
||-----------------------|----------------------|
||o----------------------|----------------------|
||-----------------------|----------------------|
||-----------------------|----------2-(2)-------|
||o-4--4-(4)-4-(4)-4-2-3-|-4--4-(4)-0-(0)-4-4-2-|
||--2--2-(2)-2-(2)-2-0-1-|-2--2-(2)-------2-2-0-|


                 PM
  E. S +E  E +E  E E E   E. S +E  E +H     6x
|----------------------|-------------------||
|----------------------|------------------o||
|----------------------|-------------------||
|----------------------|-------------------||
|-4--4-(4)-4-(4)-4-2-3-|-4--4-(4)-5-(5)---o||
|-2--2-(2)-2-(2)-2-0-1-|-2--2-(2)-3-(3)----||


                 PM                     PM
  E. S +E  E +E  E E E   E. S +E  E +E  E E E
|----------------------|----------------------|
|----------------------|----------------------|
|----------------------|----------------------|
|----------------------|----------2-(2)-------|
|-4--4-(4)-4-(4)-4-2-3-|-4--4-(4)-0-(0)-4-4-2-|
|-2--2-(2)-2-(2)-2-0-1-|-2--2-(2)-------2-2-0-|


                 PM
  E. S +E  E +E  E E E   E. S +E  E +H       +Q    Q    H
|----------------------|-------------------|---------------*|
|----------------------|-------------------|---------------*|
|----------------------|-------------------|---------------*|
|----------------------|-------------------|---------------*|
|-4--4-(4)-4-(4)-4-2-3-|-4--4-(4)-5-(5)----|-(5)\----------*|
|-2--2-(2)-2-(2)-2-0-1-|-2--2-(2)-3-(3)----|-(3)\----------*|



Duration Legend
---------------
W - whole; H - half; Q - quarter; E - 8th; S - 16th; T - 32nd; X - 64th; a - acciaccatura
+ - note tied to previous; . - note dotted; .. - note double dotted
Uncapitalized letters represent notes that are staccato (1/2 duration)
Irregular groupings are notated above the duration line
Duration letters will always appear directly above the note/fret number it represents the
duration for.  Duration letters with no fret number below them represent rests.  Multi-
bar rests are notated in the form Wxn, where n is the number of bars to rest for.  Low
melody durations appear below the staff

Tablature Legend
----------------
 h   - hammer-on
 p   - pull-off
 b   - bend
 pb  - pre-bend
 r   - bend release (if no number after the r, then release immediately)
 /\  - slide into or out of (from/to "nowhere")
 s   - legato slide
 S   - shift slide
 - natural harmonic
[n]  - artificial harmonic
n(n) - tapped harmonic
 ~   - vibrato
 tr  - trill
 T   - tap
 TP  - trem. picking
 PM  - palm muting
\n/  - tremolo bar dip; n = amount to dip
 \n  - tremolo bar down
 n/  - tremolo bar up
/n\  - tremolo bar inverted dip
 =   - hold bend; also acts as connecting device for hammers/pulls
 <> - volume swell (louder/softer)
 x   - on rhythm slash represents muted slash
 o   - on rhythm slash represents single note slash

Misc Legend
-----------
 |  - bar
||  - double bar
||o - repeat start
o|| - repeat end
*|  - double bar (ending)
 :  - bar (freetime)
 $  - Segno
 &  - Coda
Tempo markers -  = BPM(8/16=s8/s16), where s8 = swing 8ths, s16 = swing 16ths

Добавлено: 26.08.2013
Другие материалы по этой песне:
  • Аккорды и текст

Страница создана 13.05.2012
http://primanota.ru/anthrax/aftershock-chords.htm
Привет, Гость.
Предлагаем пройти революционный курс по гитаре.
Подарок от PrimaNota.Ru, забирай!