PrimaNota.ru - самый крупный в мире бесплатный архив песенных текстов, аккордов, табулатур и нот


Anthony Green - Slowing Down Long Time Coming - таба, видео

Регистрация Запомнить меня
Войти через:  Facebook Google Twitter Vk Yandex Mail.ru

Anthony Green - Slowing Down Long Time Coming - таба, видео

Печатать
Просмотров: 117
----------------------------------------------------------------------------
			  Slowing Down - Anthony Green
Tabbed by:Cidsurvive
Email:jem19@hotmail.com

Tuning:Standard eBGDAE

Anthony is amazing...no homo, super easy enjoy 

Verse:

e|---xxxxxx------x-x-x-x-x-x------xxxxxxxxxxxx-|  
B|---xxxxxx------x-x-x-x-x-x------xxxxxxxxxxxx-|  
G|---999999------x-x-x-x-x-x------xxxxxxxxxxxx-|
D|---999999------101010101010-----555555555555-|
A|---777777------101010101010-----555555555555-|
E|---xxxxxx------8-8-8-8-8-8------333333333333-|

things start slowing down for and i...

e|---x-x-x-x-x------xxx----xxx----xxxxxxxxxxxx-|
B|---x-x-x-x-x------xxx----xxx----xxxxxxxxxxxx-|
G|---x-x-x-x-x------xxx----xxx----xxxxxxxxxxxx-|
D|---1010101010-----777----999----555555555555-|
A|---1010101010-----777----999----555555555555-|
E|---8-8-8-8-8------555----777----333333333333-|

Its been a long time a comin'...


e|---xxxxxx------x-x-x-x-x-x------xxxxxxxxxxxx-|  
B|---xxxxxx------x-x-x-x-x-x------xxxxxxxxxxxx-|  
G|---999999------x-x-x-x-x-x------xxxxxxxxxxxx-|
D|---999999------101010101010-----555555555555-|
A|---777777------101010101010-----555555555555-|
E|---xxxxxx------8-8-8-8-8-8------333333333333-|

if you keep holding on to what we've lost...

e|---x-x-x-x-x------xxx----xxx----xxxxxxxxxxxx-|
B|---x-x-x-x-x------xxx----xxx----xxxxxxxxxxxx-|
G|---x-x-x-x-x------xxx----xxx----xxxxxxxxxxxx-|
D|---1010101010-----777----999----555555555555-|
A|---1010101010-----777----999----555555555555-|
E|---8-8-8-8-8------555----777----333333333333-|

you're gonna drag down the road behind us...

Chorus:

e|---xxxxxx---xxxxxx---x-x-x-x-x-x-x-x-x-x-x-x-|
B|---xxxxxx---xxxxxx---x-x-x-x-x-x-x-x-x-x-x-x-|
G|---xxxxxx---xxxxxx---x-x-x-x-x-x-x-x-x-x-x-x-|
D|---777777---999999---101010101010101010101010-|  X4
A|---777777---999999---101010101010101010101010-|
E|---555555---777777---8-8-8-8-8-8-8-8-8-8-8-8-|

I never wanted it to feel like this, to be this way
I'm just afraid that if you stay, we'll never change
I never wanted it to be like this, to feel this way
I'm just afraid that if you stay, you'll hate me



thats pretty much it just repeat.
the lyrics change a lil'
but you should know that if you're reading this.




| /  slide up
| \  slide down
| h  hammer-on
| p  pull-off
| ~  vibrato
| +  harmonic
| x  Mute note
===============================================================================
Добавлено: 29.08.2013
Другие материалы по этой песне:
  • Аккорды и текст

Страница создана 29.08.2013
http://primanota.ru/anthony-green/slowing-down-long-time-coming-chords.htm
Привет, Гость.
Предлагаем пройти революционный курс по гитаре.
Подарок от PrimaNota.Ru, забирай!