PrimaNota.ru - самый крупный в мире бесплатный архив песенных текстов, аккордов, табулатур и нот


Anthony Green - Get Yours While You Can - таба, видео

Регистрация Запомнить меня
Войти через:  Facebook Google Twitter Vk Yandex Mail.ru

Anthony Green - Get Yours While You Can - таба, видео

Печатать
Просмотров: 103
Авторы: Anthony Green

So this song is a whole step down and here ya go. Should be easy to figure in the rhythm and such.

Verse: "Let my motor run all night long..."
D----------------|
A----------------|
F----------------|
C----------------|
G------0---------|
D------2---------|

D----------------|
A----------------|
F----------------|
C----------------|
G------0---------|
D------1---------|

D----------------|
A----------------|
F----------------|
C----------------|
G------0---------|
D------0---------|

D-------------------|
A------1h3----------|
F------2------------|
C------0------------|
G-----(0)-----------|
D-------------------|

Pre Chorus: "I've been held up close enough to feel..."

D----- 3---------|
A------3---------|
F------3---------|
C----------------|
G----------------|
D----------------|

D------5---------|
A------6---------|
F------5---------|
C----------------|
G----------------|
D----------------|

D------9----------|
A------10---------|
F------9----------|
C-----------------|
G-----------------|
D-----------------|

Chorus: "Get yours while you can..."

D------5---------|
A------6---------|
F------7---------|
C----------------|
G----------------|
D----------------|

D------0---------|
A------5---------|
F------6---------|
C----------------|
G----------------|
D----------------|
Добавлено: 01.11.2013
Другие материалы по этой песне:
  • Аккорды и текст

Страница создана 01.11.2013
http://primanota.ru/anthony-green/get-yours-while-you-can-chords.htm
Привет, Гость.
Предлагаем пройти революционный курс по гитаре.
Подарок от PrimaNota.Ru, забирай!