PrimaNota.ru - самый крупный в мире бесплатный архив песенных текстов, аккордов, табулатур и нот


Anthony Green - Avalon - таба, видео

Регистрация Запомнить меня
Войти через:  Facebook Google Twitter Vk Yandex Mail.ru

Anthony Green - Avalon - таба, видео

Печатать
Просмотров: 106
Band: Anthony Green
Album: Avalon
Tabbed By: Matthew Florio; myspace.com/mattflorio2
Email: Shempashland@yahoo.com
Tuning: Whole Step Down (all songs)


Track Listing
1) She Loves Me So
2) Dear Child (Ive Been Dying To Reach You)
3) Drug Dealer
4) Stonehearted Man
5) Babygirl
6) Miracle Sun
7) Califone
8) Springtime Out The Van Window
9) Slowing Down (Long Time Coming)
10) The First Day Of Work At The Microscope Store
11) Devil's Song (This Feels Like A Nightmare)
12) Plays Ugly For Daddy

                             She Loves Me So

This song is very easy I figured it out while
watching a video that Anthony Green. He played in on the
recording (demo) 1/2 step down.
Live and on Avalon he plays it a whole step down.
Now He's an amazing musician... not the best guitarist...
but one of the most talented there today!
Check out old Saosin and Circa Survive and The Sound Of Animals Fighting.
His new solo album is due out August of 2008 on PhotoFinish Records.

http://www.youtube.com/watch?v=weRehwrd5gY

Verse:
D--0--0--0-------|
A--7--5--0-------|
F--6--4--6-------|
C--0--6--7-------|
G----------------|
D----------------|
"I keep writing myself..."

Pre Chorus:
  Bm  C#m/E
D-2---4----------|
A-3---5----------|
F-4---6----------|
C----------------|
G----------------|
D----------------|
"But soon, you'll be far away"

Chorus
D---0--12-------|
A---10-10-------|
F---11-11-------|
C---12-12-------|
G---------------|
D---------------|
"She loves me so"

                      Dear Child (Ive Been Dying To Reach You)
Standard Tuning

Intro
e|---0---0--------|
b|---0---0--------|
g|---6---9--------|
d|---6---9--------|
a|---4---7--------|
e|-------0--------|

Lead
use a delay
e|----------1212-------------1212-----|
b|---99-1010----1010--99-1010----1010-|
g|------------------------------------|
d|------------------------------------|
a|------------------------------------|
e|------------------------------------|

Verse
e|---0----0-------|
b|---5----2-------|
g|---6----2-------|
d|---6----2-------|
a|---4----0-------|
e|----------------|

Prechorus
e|---0---0---0---0--|
b|---0---0---0---0--|
g|---x---6---x---6--|
d|---6---7---6---7--|
a|---6---7---6---7--|
e|---4---5---4---5--|

Lead
this riff comes before 2nd verse and the Bridge
e|------------------------|
b|------------------2-----|
g|-------------------4-2--|
d|----2h4--2h4--2h4-------|
a|--44---44---44----------|
e|------------------------|

Chorus
e|---0---0---0---0---5--|
b|---0---5---0---0---5--|
g|---1---6---x---6---5--|
d|---2---6---6---7---7--|
a|---2---4---6---7---7--|
e|---0-------4---5---5--|

Bridge
e|---0---0--------|
b|---0---0--------|
g|---x---6--------|
d|---6---7--------|
a|---6---7--------|
e|---4---5--------|


                                Drug Dealer

Intro/Verse
d|--------------000000--|
a|--------------333333--|
f|--22-00-------333333--|
c|--22-22-33-55-333333--|
g|--00-33-33-55---------|
d|--------11-33---------|

Pre Chorus
d|----------------|
a|--1111111111----|
f|--2222222222----|
c|--3333333333----|
g|----------------|
d|----------------|

Chorus
d|--33300--33300--33300--33300------|
a|--11111--11111--11111--11111------|
f|--22222--33333--22222--33333------|
c|--33333--33333--33333--22222------|
g|----------------------------------|
d|----------------------------------|

                              Stonehearted Man
Intro
d|---------0----|
a|---------0----|
f|---------5----|
c|---------7----|
g|---------7----|
d|--------------|
"I know... hear on cd..."

Verse
Strum each about 14x each
d|--0------0------|
a|--0------0------|
f|--7------5------|
c|--9------7------|
g|--9------7------|
d|----------------|
"they say that what doesnt kill..."

Chorus
d|--0---0---0------|
a|--0---3---1------|
f|--4---4---2------|
c|--5---4---2------|
g|--5---0---0------|
d|-----------------|

Interlude
d|---00/0~---00/0~---|
a|---00/0~---00/0~---|
f|---00/0~---00/0~---|
c|---44/2~---44/2~---|
g|---55/3~---55/3~---|
d|-------------------|

                                 Babygirl
d|--0-0--0-0-0--0-0--0-0-0--00-000-00-000----|
a|-1212-121212-1212-121212--00-000-00-000----|
f|-1313-131313-1313-131313--99-999-88-888----|
c|-1111-111111-1111-111111--77-777-66-666----|
g|--0-0--0-0-0--0-0--0-0-0--99-999-77-777----|
d|---------------------------------00-000----|

d|--00000000--0-0-0-0-0-0-0-0----|
a|--55555555-1212121212121212----|
f|--66666666-1313131313131313----|
c|--44444444-1111111111111111----|
g|--00000000--0-0-0-0-0-0-0-0----|
d|-------------------------------|
"youre the  one"

                                Miracle Sun
Intro/Verse
d|---0-0-0-0-0-0-0-0-0000-0-0-0-0--|
a|--1212121212121212-777710101010--|
f|---0-0-0-0-0-0-0-0-0000-0-0-0-0--|
c|--1212121211111111-7777-9-9-9-9--|
g|---------------------------------|
d|---------------------------------|
"where do you go"

Lead
d|---0/-0/-0-0/0-0/-0--0-|--0/-0/-0-10/12/10-0~------0~----|
a|--10/12/10-5/7-7/10-10-|-10/12/10-10/12/10-7h8p7h8p7-----|
f|-----------------------|---------------------------------|
c|-----------------------|---------------------------------|
g|-----------------------|---------------------------------|
d|-----------------------|---------------------------------|
cont.
d|---0/-0/-0-10h12p(10)14-0/0/-0~-|--0--0--0-0-0-0--0--0--0-|
a|--10/12/10-12-12-----12-5/7/10~-|-10/12/10-5/7-7/10-12/10-|
f|--------------------------------|-------------------------|
c|--------------------------------|-------------------------|
g|--------------------------------|-------------------------|
d|--------------------------------|-------------------------|

Prechorus
d|---000-0~--000-0~---|
a|---555-5~--777-7~---|
f|---000-0---000-0~---|
c|---555-5---777-7~---|
g|--------------------|
d|--------------------|
"ill sleep all day"

Lead
d|---0000/0~--0--0-------|
a|---5555/7~-12p10-------|
f|-----------------------|
c|-----------------------|
g|-----------------------|
d|-----------------------|

Chorus
d|--0~--0~--2-22-2-222-----|
a|--3~--2~--0-00-0-000-----|
f|--0~--0~--0-00-0-000-----|
c|--2~--2~--2-22-2-222-----|
g|-------------------------|
d|-------------------------|

Lead
d|--0~-0-0~-0-0-0-0-0~-0-0-0-0~--|
a|--3~-7-5~-3-7h8p7/3~-7h8p7/3~--|
f|-------------------------------|
c|-------------------------------|
g|-------------------------------|
d|-------------------------------|
Lead ends the song like this:
d|--00000-------|
a|--33300-------|
f|--------------|
c|--------------|
g|--------------|
d|--------------|
                                 Califone
This song is very easy! Four chords and that is all!
Listen to the song and play along..always suggest this because
it will help you train your ears with hearing the song and what is being played. If 
contact me! Enjoy!

These chords are played during the Intro, Verse, & Chorus!
   G  Gmaj7  Em
d--3--3------3---|
A--3--3------3---|
F--0--0------0---|
C--0--0------x---|
G--2--x------2---|
D--3--2/3/2--0---|

The Lead part is played like this
d--7/10-10-10-12/10-10--10-10h12p10-------------|
A---------------------10------------12-7/8/7----|
F--------------------------------------------7--|
C-----------------------------------------------|
G-----------------------------------------------|
D-----------------------------------------------|

                       Springtime Out The Van Window
Guitar 1
d|-------------------|
a|-------------------|
f|---33--33--33--33--|
c|-1~--1~--1~--1~----|
g|-------------------|
d|-------------------|

Guitar 2
d|--------13---------------|
a|--15-15---15-13-15-13----|
f|--------------------15---|
c|-------------------------|
g|-------------------------|
d|-------------------------|

Guitar 3
comes in later
d|-------------------|
a|-------------------|
f|---7--7--7-10-7----|
c|----10-10------10--|
g|-------------------|
d|-------------------|

Guitar 4
might be a bass part
d|--------------|
a|--------------|
f|--------------|
c|--------------|
g|---6-5--------|
d|------6-------|

Guitar 5
d|--------------|
a|---15--13-----|
f|----------15--|
c|--------------|
g|--------------|
d|--------------|


                       Slowing Down (Long Time Coming)
Intro/Verse
*strum 4x
d|--0000--0--00000000---0--00/00--00000000-|
a|--0000--0--00000000---0--00/00--00000000-|
f|--9999--0--00000000---0--00/00--00000000-|
c|--9999-10--55555555--10--77/99--55555555-|
g|--7777-10--55555555--10--77/99--55555555-|
d|--0000--8*-33333333---8*-55/77--33333333-|
"things start slowing.."

Chorus
d|-------------|
a|--0--0-00----|
f|--x--x-xx----|
c|--7--9-10----|
g|--7--9-10----|
d|--5--7--8----|
"i never wanted..."

                  First Day Of Work At The Microscope Store

This is a fairly simple song but if you have any issues, questions, or comments please 
me!

Tuning: FULL STEP DOWN(DGCFAD)
(Demo version is Half Step Down)

Intro/Verse
D|--00--00--00--00--|
A|--77--00--77--00--|
F|--88--88--88--88--|
C|--66--66--66--66--|
G|--00--77--00--77--|
D|------00------00--|

Prechorus *this part goes right into the chorus
D|--0---------|
A|--0---------|
F|--5---------|
C|--6---------|
G|--4---------|
D|------------|

Chorus
D|--0-------0-------|
A|--0-------0-------|
F|-13-------5-------|
C|-14-------6-------|
G|-12-------4-------|
D|------------------|
"Serenade... until..."

              The Devil's Song (This Feels Like A Nightmare)
Intro/Chorus
d|--00000000-0-0000-55/20-00---|
a|--00005555-0-0000-77/00-00---|
f|--00000000-0-0000-77/00-00---|
c|--22224444-2-2222-xx/22-22---|
g|--22225555-2-2222-------22---|
d|--0000-----0-2222-------00---|

Verse
d|--000000000~-000000000~0~--|
a|--000000000~-000000000~0~--|
f|--555544440~-555544440~2~--|
c|--777755552~-777755552~3~--|
g|--000000002~-000000002~0~--|
d|----------0~---------0~----|

Chorus

Bridge/Outro
d|---0-----0------|
a|---0-----0------|
f|---3-----5------|
c|---5-----7------|
g|---5-----0------|
d|---x-----x------|
"We're all in the same spot..."

                          Plays Ugly For Daddy
This song has been played in both Whole Step Down and 1/2 Step Down.
The version on Avalon is 1/2 Step.

d|---0---0---0-----|
a|---0---0---0-----|
f|--12---0---0-----|
c|--10---9--10-----|
g|---0---9--10-----|
d|-------7---8-----|

this riff comes in during certain parts
d|-----------------------------------------|
a|-----------------------------------------|
f|-----------------------------10----------|
c|---10-11h13-10-11h13-10-11h13--13-11p10--|
g|-----------------------------------------|
d|-----------------------------------------|
Добавлено: 03.11.2013
Другие материалы по этой песне:
  • Аккорды и текст

Страница создана 03.11.2013
http://primanota.ru/anthony-green/avalon-chords.htm
Привет, Гость.
Предлагаем пройти революционный курс по гитаре.
Подарок от PrimaNota.Ru, забирай!