PrimaNota.ru - самый крупный в мире бесплатный архив песенных текстов, аккордов, табулатур и нот


Anthony Corona - Burn - таба, видео

Регистрация Запомнить меня
Войти через:  Facebook Google Twitter Vk Yandex Mail.ru

Anthony Corona - Burn - таба, видео

Печатать
Просмотров: 111
There are Two guitars in the song.
Guitar 1-Acoustic
Guitar 2-Electric using 3/4 of ditortion level
This is actually By hywire but i posted it under Anthony Corona

Verse 1
(Guitar 1)
|------------0-----------0------------------------|
|----------3-----------3-----------0---------0----|
|--------2-----------2-----------0---------0------| Play Four times
|------0-----------0-----------2---------2--------|
|----0-----------0-----------2---------2----------|
|--3-----------2-----------0---------0------------|

(Guitar 2)
|--x-x-x---x-x-x---x-x-x---x-x-x-x-x-x----|
|--x-x-x---x-x-x---x-x-x---x-x-x-x-x-x----|
|--x-x-x---x-x-x---x-x-x---x-x-x-x-x-x----| Main Riff though out the song
|--5-5-5---4-4-4---2-x-x-2-x-2-x-2-x-2----| By Guitar 2(Play twice with guitar 1
|--5-5-5---4-4-4---2-x-x-2-x-2-x-2-x-2----| then three times without guitar 1)
|--3-3-3---2-2-2---0-x-x-0-x-0-x-0-x-0----|

Verse 2
(Guitar 1)
|------------0-----------0------------------------|
|----------3-----------3-----------0---------0----|
|--------2-----------2-----------0---------0------| Play Four times
|------0-----------0-----------2---------2--------|
|----0-----------0-----------2---------2----------|
|--3-----------2-----------0---------0------------|

(Guitar 2)
|--x-x-x---x-x-x---x-x-x---x-x-x-x-x-x----|
|--x-x-x---x-x-x---x-x-x---x-x-x-x-x-x----|
|--x-x-x---x-x-x---x-x-x---x-x-x-x-x-x----| Main Riff though out the song
|--5-5-5---4-4-4---2-x-x-2-x-2-x-2-x-2----| By Guitar 2(Play twice with guitar 1
|--5-5-5---4-4-4---2-x-x-2-x-2-x-2-x-2----| then three times without guitar 1)
|--3-3-3---2-2-2---0-x-x-0-x-0-x-0-x-0----|

Solo
(Guitar 1)
|---10--7----------------------------------------------------------------------------------------|
|---------10--7----------------------------------------------------------------------------------|
|---------------9--7-------------------------------7--9--7--9--7--9--b7-b7-b7-b7-----------------|
|--------------------9--7---------------------7--9-----9-----9-----9------------9--7-------------|
|-------------------------9--7------------7-9---------------------------------------9--7---------|
|------------------------------10-7-7--10------------------------------------------------10--7---|
Play the solo twice

Verse 3
(Guitar 1)
|--------------------------------------------|
|-3-3-3--3-3-3-------------------------------|
|-2-2-2--2-2-2-------------------------------|
|-0-0-0--0-0-0--2-2-2------------------------|
|-0-0-0--0-0-0--2-2-2------------------------|
|-3-3-3--2-2-2--0-0-0------------------------|
 x's(3) x's(3)  x's(6)

(Guitar 2)
|--x-x-x---x-x-x---x-x-x---x-x-x-x-x-x----|
|--x-x-x---x-x-x---x-x-x---x-x-x-x-x-x----|
|--x-x-x---x-x-x---x-x-x---x-x-x-x-x-x----| Play Unision With Guitar 1
|--5-5-5---4-4-4---2-x-x-2-x-2-x-2-x-2----| About Six times Then Fade
|--5-5-5---4-4-4---2-x-x-2-x-2-x-2-x-2----|
|--3-3-3---2-2-2---0-x-x-0-x-0-x-0-x-0----|

=============================================================
 ##  ##  ##       ##                   00  ######   #######
 ##  ##   ##     ####               ##     ##  ##   #######
 ######    ##   ##  ##             ##  ##  ##  ##   ##
 ######     ## ##    ##           ##   ##  #####    #####
 ##  ##       ##      ##   ###   ##    ##  ##  ##   ##
 ##  ##      ##        ## ## ## ##     ##  ##   ##  ######
 ##  ##     ##          ###   ###      ##  ##    ## #######
=============================================================
That is the whole song repeat each verse twice after the solo
Thanks alot Hope You enjoy the song
If you have any problems Email me at Hywire119@cs.com
Добавлено: 07.05.2012
Другие материалы по этой песне:
  • Аккорды и текст

Страница создана 07.05.2012
http://primanota.ru/anthony-corona/burn-chords.htm
Привет, Гость.
Предлагаем пройти революционный курс по гитаре.
Подарок от PrimaNota.Ru, забирай!