PrimaNota.ru - самый крупный в мире бесплатный архив песенных текстов, аккордов, табулатур и нот


Anterior - Tyranny - таба, видео

Регистрация Запомнить меня
Войти через:  Facebook Google Twitter Vk Yandex Mail.ru

Anterior - Tyranny - таба, видео

Печатать
Просмотров: 197
Уроки эстрадного вокала в Санкт-Петербурге
 Tyranny Solo's - Anterior

"Echoes Of The Fallen"


Leon Solo

D|-17b18-15--20b22---20-18--17h18p17----------------------------------|
A|------------------------------------18------------------------------|
F|---------------------------------------17-s14h15--14---12p10-12-----|
C|--------------------------------------------------------------------|
G|--------------------------------------------------------------------|
D|--------------------------------------------------------------------|



D|-------------------10h15--t17p15p10h15--t17p15t17p15p10h15----------|
A|-13b15(ph)-------11-------------------------------------------------|
F|---------------12---------------------------------------------------|
C|--------------------------------------------------------------------|
G|--------------------------------------------------------------------|
D|--------------------------------------------------------------------|

                                                                (slide with tap finger)

D|-t18p15t18p15p10h15--t20p15t20p15p10h15--t20p15t20s22s20p15---------|
A|--------------------------------------------------------------------|
F|--------------------------------------------------------------------|
C|--------------------------------------------------------------------|
G|--------------------------------------------------------------------|
D|--------------------------------------------------------------------|


                (This section all with bar work)
D|-------------------------------------------------------------------|
A|-5(nh)\------------------------------------------------------------|
F|-5(nh)\------(2)h3s5------s7-------7--------7---------10-----------|
C|-------------------------------------------------------------------|
G|-------------------------------------------------------------------|
D|-------------------------------------------------------------------|



D|------------------------------------------------------------------|
A|------------------------------------------------------------------|
F|-t12p7h10p7--t12p7t12p7h10p7--t12p7t12p7h10p7---------------------|
C|------------------------------------------------------------------|
G|------------------------------------------------------------------|
D|------------------------------------------------------------------|

D|------------------------------------------------------------------|
A|------------------------------------------------------------------|
F|-t14p7h10p7--t14p7t14p7h10p7--t14p7t14p7h10p7---------------------|
C|------------------------------------------------------------------|
G|------------------------------------------------------------------|
D|------------------------------------------------------------------|



D|-18--17--15-------------------------------------------------------|
A|---15--15--15---18b20---------------------------------------------|
F|------------------------------------------------------------------|
C|------------------------------------------------------------------|
G|------------------------------------------------------------------|
D|------------------------------------------------------------------|


Nixon Solo

D|--------10--------10----------------------------10h11h14t15p14----|
A|--13b15-----13b15-----13b15-----------10h11h13--------------------|
F|-------------------------------11h12------------------------------|
C|------------------------------------------------------------------|
G|------------------------------------------------------------------|
D|------------------------------------------------------------------|


D|-p11p10h11h14t15p14t15p14p11p10t17p14ht17p14p11p10h11h14t18p14|
A|-----------------------------------------------------------------|
F|-----------------------------------------------------------------|
C|-----------------------------------------------------------------|
G|-----------------------------------------------------------------|
D|-----------------------------------------------------------------|


D|-p11p10t20p14p11p10------17b18b20r17—15h17-14b15------------------|
A|------------------------------------------------------------------|
F|--------------------------------------------------15-14-----------|
C|------------------------------------------------------------------|
G|------------------------------------------------------------------|
D|------------------------------------------------------------------|








D|---14---------------14-15-17-15-14--------------------------------|
A|------16-15-13-15-16----------------16-15-13-15-16----------------|
F|------------------------------------------------------------------|
C|------------------------------------------------------------------|
G|------------------------------------------------------------------|
D|------------------------------------------------------------------|




D|-15----------------15-17-18-17-15---------------------------------|
A|----19-16-15-16-19----------------19-16-15-16-19------------------|
F|------------------------------------------------------------------|
C|------------------------------------------------------------------|
G|------------------------------------------------------------------|
D|------------------------------------------------------------------|


D|-17----------------17-18-20-18-17-------------------20b22---------|
A|----20-19-16-19-20-----------------20-19-16-19-20-----------------|
F|------------------------------------------------------------------|
C|------------------------------------------------------------------|
G|------------------------------------------------------------------|
D|------------------------------------------------------------------|


D|-22-20h22p20/18--20-18h20p18/17-18-17h18p17/15-17-15h17p15/14------|
A|-------------------------------------------------------------------|
F|-------------------------------------------------------------------|
C|-------------------------------------------------------------------|
G|-------------------------------------------------------------------|
D|-------------------------------------------------------------------|


D|-------------17b18r17--15-------15-17-18-17b18—r17p15-17---20b22-----|
A|---15h16-16---------------18b20--------------------------------------|
F|---------------------------------------------------------------------|
C|---------------------------------------------------------------------|
G|---------------------------------------------------------------------|
D|---------------------------------------------------------------------|


So here's a rough guide to help you out guy's we haven't put in all the little nuances 
but this should help you on your way.

Good Luck!
Добавлено: 21.03.2012
Другие материалы по этой песне:

Страница создана 21.03.2012
http://primanota.ru/anterior/tyranny-chords.htm
Привет, Гость.
Предлагаем пройти революционный курс по гитаре.
Подарок от PrimaNota.Ru, забирай!