PrimaNota.ru - самый крупный в мире бесплатный архив песенных текстов, аккордов, табулатур и нот


Antemasque - Ride Like The Devils Son - таба, видео

Регистрация Запомнить меня
Войти через:  Facebook Google Twitter Vk Yandex Mail.ru

Antemasque - Ride Like The Devils Son - таба, видео

Печатать
Просмотров: 52
Antemasque - Ride Like The Devil's Son

Back from my vacation, I'm gonna do some more Antemasque tabs, 
then Mars Volta, ATDI, RHCP, Dot Hacker, and others.


Intro:

e|-------------------------------------------------|
B|----------------------12----12----12----12----12-|
G|-------------------------------------------------|
D|-10-10/9-7-9-7-9-9/12----12----12----12----12----|
A|-0--0----0-0-0-0-0~------------------------------|
E|-------------------------------------------------|

|-------------------------------------|
|-------------------3---3---1---1---1-|
|-------------------------------------|
|-10-10/9-7-9-7-7-3---3---3---3---3---|
|-0--0----0-0-0-0-0~------------------|
|-------------------------------------|

|-------------------------------------------------|
|----------------------12----12----10----10----10-|
|-------------------------------------------------|
|-10-10/9-7-9-7-9-9/12----12----12----12----12----|
|-0--0----0-0-0-0-0~------------------------------|
|-------------------------------------------------|

|-------------------------------------|
|-------------------3---3---1---1---1-|
|-------------------------------------|
|-10-10/9-7-9-7-7-3---3---3---3---3---|
|-0--0----0-0-0-0-0~------------------|
|-------------------------------------|


Verse:

|--------------------|
|---6---------5----8-|
|--------5-----------|x4
|--------------------|
|-5---------3----7---|
|------5-------------|


Pre-chorus:

*-shake it gently with the whammy bar

|-----7*------5*------7*------5h7-5------7*------5*--3*--5*-----------|
|---6-------5-------6-------5----------6-------5-----5*--6*-----------|
|-7-------5-------7-------5----------7-------5-------5*--7*-555555555-|
|-----------------------------------------------------------777777777-|
|-----------------------------------------------------------777777777-|
|-----------------------------------------------------------555555555-|


Chorus:

|------------------------------------------------|
|-1-11--------------7-77--1-11-----------------7-|
|-2-22--0-00--------7-77--2-22--0-00-----------7-|
|-2-22--2-22--5-55--7-77--2-22--2-22--55555555-7-|
|-0-00--2-22--5-55--5-55--0-00--2-22--55555555-5-|
|-------0-00--3-33--------------0-00--33333333---|


Repeating the intro:

|-------------------------------------------------|
|----------------------12----12----12----12----12-|
|-------------------------------------------------|
|-10-10/9-7-9-7-9-9/12----12----12----12----12----|
|-0--0----0-0-0-0-0~------------------------------|
|-------------------------------------------------|


|---------------------------------------|
|-------------------3---3---1---1---1p0-|
|---------------------------------------|
|-10-10/9-7-9-7-7-3---3---3---3---3-----|
|-0--0----0-0-0-0-0~--------------------|
|---------------------------------------|


Verse:

|----7-------5---------------------------------8p7---|
|---6-6-----------5---8-8-----6---------5----8-----8-|
|----------5-----------------------5-----------------|
|----------------------------------------------------|
|-5-------------3----7-7-----5--------3----7---------|
|--------5-----------------------5-------------------|


Pre-chorus:

|-----7*------5*------7*------5h7-5------7*------5*--3*--5*-----------|
|---6-------5-------6-------5----------6-------5-----5*--6*-----------|
|-7-------5-------7-------5----------7-------5-------5*--7*-555555555-|
|-----------------------------------------------------------777777777-|
|-----------------------------------------------------------777777777-|
|-----------------------------------------------------------555555555-|


Chorus:

|------------------------------------------------|
|-1-11--------------7-77--1-11-----------------7-|
|-2-22--0-00--------7-77--2-22--0-00-----------7-|
|-2-22--2-22--5-55--7-77--2-22--2-22--55555555-7-|
|-0-00--2-22--5-55--5-55--0-00--2-22--55555555-5-|
|-------0-00--3-33--------------0-00--33333333---|


Bridge:

Two guitars play this part.

Gtr.1

|----------------|
|----------------|
|----5----7--5---|x4
|-7--5-5--7--5-5-|
|-7--3-5--5--3-5-|
|-5----3-------3-|

Gtr.2-starts playing during the 2nd repeating of Gtr.1's part

|-------------------------------|
|-------------------------------|
|-------12---------12-14-14b-14-|
|-12h14------12h14--------------|
|-------------------------------|
|-------------------------------|

|-------------------------------------|
|-------------------------------------|
|-14p12-------------------------------|
|-------14---12h14p12/10--------------|
|-------------------------12h15p12/10-|
|-------------------------------------|

|----------------------------------------------------|
|-13b-13--10-12-10-12b-12-10/8p0--10h12--------------|
|---------------------------------------10p9---------|
|--------------------------------------------12-9----|
|-------------------------------------------------12-|
|----------------------------------------------------|


Chorus without the guitar

Chorus again with the guitar:


|--------------------------------------------------------|
|-1-11--------------7-77--1-11-----------------777777777-|
|-2-22--0-00--------7-77--2-22--0-00-----------777777777-|
|-2-22--2-22--5-55--7-77--2-22--2-22--55555555-777777777-|
|-0-00--2-22--5-55--5-55--0-00--2-22--55555555-555555555-|
|-------0-00--3-33--------------0-00--33333333-----------|

You can strum however you want here except for the last two chords.

|-0-0-0-0--0-0-0-0--3-3-3-3--2-2-2-2--0-0-0-0--0-0-0-0-------2-|
|-1-1-1-1--0-0-0-0--3-3-3-3--3-3-3-3--1-1-1-1--0-0-0-0-------3-|
|-2-2-2-2--0-0-0-0--0-0-0-0--2-2-2-2--2-2-2-2--0-0-0-0--0----2-|
|-2-2-2-2--2-2-2-2--0-0-0-0--0-0-0-0--2-2-2-2--2-2-2-2--0----0-|
|-0-0-0-0--2-2-2-2--2-2-2-2-----------0-0-0-0--2-2-2-2--2------|
|----------0-0-0-0--3-3-3-3--------------------0-0-0-0--3------|

End.
Добавлено: 09.11.2015
Другие материалы по этой песне:
  • Аккорды и текст

Страница создана 09.11.2015
http://primanota.ru/antemasque/ride-like-devils-son-chords.htm
Привет, Гость.
Предлагаем пройти революционный курс по гитаре.
Подарок от PrimaNota.Ru, забирай!