PrimaNota.ru - самый крупный в мире бесплатный архив песенных текстов, аккордов, табулатур и нот


Antemasque - People Forget - таба, видео

Регистрация Запомнить меня
Войти через:  Facebook Google Twitter Vk Yandex Mail.ru

Antemasque - People Forget - таба, видео

Печатать
Просмотров: 56
Antemasque-People Forget

After this one, I'm gonna make Providence and
maybe some other Antem. tab, and soon after an ATDI tab.



Intro:
 
With delay.

  
e|------------------------------------------------------------------------------------------|
B|------------------------------------------------------------------------------------------|
G|---------------------------------------12-12-12-12/19~------------------12-12-12-12/19~---|
D|--8-8-8-8-10-10------8-8-8-8-10-10---------------------8-8-8-8-10-10----------------------|
A|----------------10-----------------10--------------------------------10-------------------|
E|------------------------------------------------------------------------------------------|


Verse:

You can play without the open G string, it'll still sound ok.
 
|-------------------------------------------------------------|
|-------------------------------------------------------------|
|-0--0------0--0------0--0--0--0-0-0-0-0-0-0-0-0-0--0-0--0-0--|x2
|-17/12~----17/11~----10-10-10-108-8-7-7-5-5-5-8-5--5-5--5-5--|
|-------------------------------------------------------------|
|-------------------------------------------------------------|


Pre-chorus:

You can play the chords without the notes on the 5th and the 6th string, 
but I added them because it sounds more melodic.

|-10-10-10-10--10-10-10-10-10-10---------------------------------------|
|-10-10-10-10--8--8--8--8--8--8----------------------------------------|
|-10-10-10-10--9--9--9--9--9--9---12-12-12-12--12-12-12-12-12-12-12-12-|
|-10-10-10-10--10-10-10-10-10-10--10-10-10-8---10-10-10-10-10-8--8--8--|
|-8--8--8--8---x--x--x--x--x--x---10-10-10-10--10-10-10-10-10-10-10-10-|
|--------------8--8--8--8--8--8----------------------------------------|


|-10-10-10-10--10-10-10-10-10-10---------------------|
|-10-10-10-10--8--8--8--8--8--8---7-7-7-7-7-7-7-7-7~-|
|-10-10-10-10--9--9--9--9--9--9---7-7-7-7-7-7-7-7-7~-|
|-10-10-10-10--10-10-10-10-10-10--7-7-7-7-7-7-7-7-7~-|
|-8--8--8--8---x--x--x--x--x--x---5-5-5-5-5-5-5-5-5~-|
|--------------8--8--8--8--8--8----------------------|


Chorus: 

With delay.

|--------------------------------------------------|
|--------------------------------------------------|
|------------------7--7-7--------------------------|
|-8--8-8------------------8-8-10--8--8-8-----------|
|--------10--10-10-----------------------10--10-10-|
|--------------------------------------------------|

|-------------------------------------------------------|
|-------------------------------------------------------|
|-7--7-7-----------7--7-7-7--------12--12-12--9--9-9-7~-|
|--------8--8-8-------------8--8-8----------------------|
|-------------------------------------------------------|
|-------------------------------------------------------|


This part is usually played by another guitar while the first lets the 7th note on the G string ring,
but it's much more simple to just play this on one guitar.

|-------------------------------------------------|
|---------11----------11----------11----------11--|
|-10--12------10--12------10--12------10--12------|
|-------------------------------------------------|
|-------------------------------------------------|
|-------------------------------------------------|


Solo:

|-------------------------------------------13-15-15b--------|
|----------------------11-------13p11-13-15-----------15-13~-|
|-------10----------------12-10------------------------------|
|-10h12----10-8h10/------------------------------------------|
|------------------------------------------------------------|
|------------------------------------------------------------|


Back to verse:

|-------------------------------------------------------------|
|-------------------------------------------------------------|
|-0--0------0--0------0--0--0--0-0-0-0-0-0-0-0-0-0--0-0--0-0--|x2
|-17/12~----17/11~----10-10-10-108-8-7-7-5-5-5-8-5--5-5--5-5--|
|-------------------------------------------------------------|
|-------------------------------------------------------------|


Prechorus again:

|-10-10-10-10--10-10-10-10-10-10---------------------------------------|
|-10-10-10-10--8--8--8--8--8--8----------------------------------------|
|-10-10-10-10--9--9--9--9--9--9---12-12-12-12--12-12-12-12-12-12-12-12-|
|-10-10-10-10--10-10-10-10-10-10--10-10-10-8---10-10-10-10-10-8--8--8--|
|-8--8--8--8---x--x--x--x--x--x---10-10-10-10--10-10-10-10-10-10-10-10-|
|--------------8--8--8--8--8--8----------------------------------------|


|-10-10-10-10--10-10-10-10-10-10---------------------|
|-10-10-10-10--8--8--8--8--8--8---7-7-7-7-7-7-7-7-7~-|
|-10-10-10-10--9--9--9--9--9--9---7-7-7-7-7-7-7-7-7~-|
|-10-10-10-10--10-10-10-10-10-10--7-7-7-7-7-7-7-7-7~-|
|-8--8--8--8---x--x--x--x--x--x---5-5-5-5-5-5-5-5-5~-|
|--------------8--8--8--8--8--8----------------------|


Chorus, repeat this whole sequence 2 times:


|--------------------------------------------------|
|--------------------------------------------------|
|------------------7--7-7--------------------------|
|-8--8-8------------------8-8-10--8--8-8-----------|
|--------10--10-10-----------------------10--10-10-|
|--------------------------------------------------|

|-------------------------------------------------------|
|-------------------------------------------------------|
|-7--7-7-----------7--7-7-7--------12--12-12--9--9-9-7~-|
|--------8--8-8-------------8--8-8----------------------|
|-------------------------------------------------------|
|-------------------------------------------------------|

|-------------------------------------------------|
|---------11----------11----------11----------11~-|
|-10--12------10--12------10--12------10--12------|
|-------------------------------------------------|
|-------------------------------------------------|
|-------------------------------------------------|

Bridge:

|-----------------------------------------------|
|--------------------------------------0-0------|
|--------------------------------------3-5-0-0~-|
|-5-5-5--8-8-5-5-5--5-5-5--8-8--5-5-5------3-5~-|
|-5-5-5--8-8-5-5-5--5-5-5--8-8--5-5-5-----------|
|-3-3-3--6-6-3-3-3--3-3-3--6-6--3-3-3-----------|

|--------------------------------------------|
|--------------------------------------0-0---|
|--------------------------------------3-5-0-|
|-5-5-5--8-8-5-5-5--5-5-5--8-8--5-5-5------3-|
|-5-5-5--8-8-5-5-5--5-5-5--8-8--5-5-5--------|
|-3-3-3--6-6-3-3-3--3-3-3--6-6--3-3-3--------|

|-----13-------------11-----------6-----------6-----|
|-13~----13-----11~--------11--6~---6-------6---6---|
|-14~-------14--12~-----12-----7~-----7---7-------7-|
|-15~-----------13~------------8~-------8-----------|
|-15~-----------13~------------8~-------------------|
|---------------------------------------------------|

|-----13-------------11-----------6-------------8------------8-----|
|-13~----13-----11~--------11--6~---6---------8---8--------8---8---|
|-14~-------14--12~-----12-----7~-----7-----9-------9----9-------9-|
|-15~-----------13~------------8~--------10-----------10-----------|
|-15~-----------13~------------8~----------------------------------|
|------------------------------------------------------------------|

Repeat all of this 2 times.



Back to chorus, again 2 times:

|--------------------------------------------------|
|--------------------------------------------------|
|------------------7--7-7--------------------------|
|-8--8-8------------------8-8-10--8--8-8-----------|
|--------10--10-10-----------------------10--10-10-|
|--------------------------------------------------|

|-------------------------------------------------------|
|-------------------------------------------------------|
|-7--7-7-----------7--7-7-7--------12--12-12--9--9-9-7~-|
|--------8--8-8-------------8--8-8----------------------|
|-------------------------------------------------------|
|-------------------------------------------------------|

|-------------------------------------------------|
|---------11----------11----------11----------11~-|
|-10--12------10--12------10--12------10--12------|
|-------------------------------------------------|
|-------------------------------------------------|
|-------------------------------------------------|


The end.
Добавлено: 21.04.2016
Другие материалы по этой песне:
  • Аккорды и текст

Страница создана 21.04.2016
http://primanota.ru/antemasque/people-forget-chords.htm
Привет, Гость.
Предлагаем пройти революционный курс по гитаре.
Подарок от PrimaNota.Ru, забирай!