PrimaNota.ru - самый крупный в мире бесплатный архив песенных текстов, аккордов, табулатур и нот


Antemasque - Domino Rain - таба, видео

Регистрация Запомнить меня
Войти через:  Facebook Google Twitter Vk Yandex Mail.ru

Antemasque - Domino Rain - таба, видео

Печатать
Просмотров: 52
Antemasque-Domino Rain


Intro:

e|--------------------------------------|
B|--------------------------------8-8-8-|
G|---------9------9---9-----------------|
D|--------------------------------------|
A|--------------------------------------|
E|-3/9-9-9----9-9---9---9-9-9-9-9-------|

|-------------------------------------|
|------------------------------8-8-8--|
|-------9------9---9------------------|
|-------------------------------------|
|-------------------------------------|
|--9-9----9-9---9---9-9-9-9-9---------|

|-------------------------------------|
|------------------------------8-8-8--|
|-------9------9---9------------------|
|-------------------------------------|
|-------------------------------------|
|--9-9----9-9---9---9-9-9-9-9---------|

|-------------------------------------|
|-------------------------------------|
|-------9------9---9------------------|
|-------------------------------------|
|-------------------------------------|
|--9-9----9-9---9---9-9-9-9-9/3-3-3---|


Verse:

|------------------------------------------------------------------------|
|------------------------------8-8-8------------------------------8-8-8--|
|-------9------9---9-----------------------9------9---9------------------|
|------------------------------------------------------------------------|
|------------------------------------------------------------------------|
|--9-9----9-9---9---9-9-9-9-9---------9-9----9-9---9---9-9-9-9-9---------|

|------------------------------------------------------------------|
|------------------------------------------------------------------|
|------4-----4---4---------------------6-----6---6-----------------|
|------------------------------------------------------------------|
|------------------------------------------------------------------|
|-4-4----4-4---4---4-4-4-4-4-4-4-4-5-5--5-5----5---5-5-5-5-5-5-5-5-|

|-------------------------------------------------------------------------|
|------------------------------8-8-8-------------------------8-8-8-8-8-8--|
|-------9------9---9-----------------------9------9---9-------------------|
|-------------------------------------------------------------------------|
|-------------------------------------------------------------------------|
|--9-9----9-9---9---9-9-9-9-9---------9-9----9-9---9---9-9-9--------------|

The 2nd time through:

|------------------------------------------------------------------------|
|------------------------------8-8-8------------------------------8-8-8--|
|-------9------9---9-----------------------9------9---9------------------|
|------------------------------------------------------------------------|
|------------------------------------------------------------------------|
|--9-9----9-9---9---9-9-9-9-9---------9-9----9-9---9---9-9-9-9-9---------|

|------------------------------------------------------------------|
|------------------------------------------------------------------|
|------4-----4---4---------------------6-----6---6-----------------|
|------------------------------------------------------------------|
|------------------------------------------------------------------|
|-4-4----4-4---4---4-4-4-4-4-4-4-4-5-5--5-5----5---5-5-5-5-5-5-5-5-|

*-distant 

|--------------------------------------------------------------------------|
|-----------------------8-8-8-8-8-8-----------------------8-8-8-8-8-8------|
|-------9------9---9--------------------9-----9---9-------------------7~*--|
|--------------------------------------------------------------------------|
|--------------------------------------------------------------------------|
|--9-9----9-9---9---9-9-------------9-9---9-9---9---9-9-9------------------|



Chorus:

|-------------------------------------------------------|
|-----9-----9-9------9-----9---9--7---7--7----55555555--|
|-----9-----9-9------9-----9---9--7---7--7----66666666--|x2
|---------------------------------------------77777777--|
|-7-7---7-7------7-7---7-7---7------5---5---------------|
|-------------------------------------------------------|



Switching back to verse:

|-------------------------------------|
|------------------------------8-8-8--|
|-------9------9---9------------------|
|-------------------------------------|
|-------------------------------------|
|--9-9----9-9---9---9-9-9-9-9---------|

|-------------------------------------|
|-------------------------------------|
|-------9------9---9------------------|
|-------------------------------------|
|-------------------------------------|
|--9-9----9-9---9---9-9-9-9-9/3-3-3---|

When he starts singing just repeat those parts like in the first verse:


|------------------------------------------------------------------------|
|------------------------------8-8-8------------------------------8-8-8--|
|-------9------9---9-----------------------9------9---9------------------|
|------------------------------------------------------------------------|
|------------------------------------------------------------------------|
|--9-9----9-9---9---9-9-9-9-9---------9-9----9-9---9---9-9-9-9-9---------|

|------------------------------------------------------------------|
|------------------------------------------------------------------|
|------4-----4---4---------------------6-----6---6-----------------|
|------------------------------------------------------------------|
|------------------------------------------------------------------|
|-4-4----4-4---4---4-4-4-4-4-4-4-4-5-5--5-5----5---5-5-5-5-5-5-5-5-|

|-------------------------------------------------------------------------|
|------------------------------8-8-8-------------------------8-8-8-8-8-8--|
|-------9------9---9-----------------------9------9---9-------------------|
|-------------------------------------------------------------------------|
|-------------------------------------------------------------------------|
|--9-9----9-9---9---9-9-9-9-9---------9-9----9-9---9---9-9-9--------------|


|------------------------------------------------------------------------|
|------------------------------8-8-8------------------------------8-8-8--|
|-------9------9---9-----------------------9------9---9------------------|
|------------------------------------------------------------------------|
|------------------------------------------------------------------------|
|--9-9----9-9---9---9-9-9-9-9---------9-9----9-9---9---9-9-9-9-9---------|

|------------------------------------------------------------------|
|------------------------------------------------------------------|
|------4-----4---4---------------------6-----6---6-----------------|
|------------------------------------------------------------------|
|------------------------------------------------------------------|
|-4-4----4-4---4---4-4-4-4-4-4-4-4-5-5--5-5----5---5-5-5-5-5-5-5-5-|


|-----------------------------------------|
|------------------------8-8-8-8-8-8------|
|------9-----9---9-------------------7~*--|
|-----------------------------------------|
|-----------------------------------------|
|--9-9---9-9---9---9-9-9------------------|



Chorus again:

|-------------------------------------------------------|
|-----9-----9-9------9-----9---9--7---7--7----55555555--|
|-----9-----9-9------9-----9---9--7---7--7----66666666--|x4
|---------------------------------------------77777777--|
|-7-7---7-7------7-7---7-7---7------5---5---------------|
|-------------------------------------------------------|


Bridge:

I think this part has two guitars, but it's very hard to hear.

Gtr.1:

|----------------------------------------------------------|
|----------------------------------------------------------|
|-11-11-1111--12-1212-12-12--11-11-1212--16-1616--14-1414--|x3
|-x--x--x-x---x--x-x--x--x---x--x--x-x---x--x-x---x--x-x---|
|-9--9--9-9---10-1010-10-10--9--9--1010--14-1414--12-1212--|
|----------------------------------------------------------|


|--------------------------------------------------------------------------|
|--------------------------------------------------------------------------|
|-11-11-1111--12-1212-12-12--11-11-1212--16-141614161416141614161416141614-|
|-x--x--x-x---x--x-x--x--x---x--x--x-x---x--x-x-x-x-x-x-x-x-x-x-x-x-x-x-x--|
|-9--9--9-9---10-1010-10-10--9--9--1010--14-121412141214121412141214121412-|
|--------------------------------------------------------------------------|

|----------------------------------|
|----------------------------------|
|-1412141214121412-121212121212-14-|
|-x-x-x-x-x-x-x-x--x-x-x-x-x-x--x--|
|-1210121012101210-101010101010-12-|
|----------------------------------|

Gtr.2

|---------------------------------------------------|
|---------------------------------------------------|
|-0--0--0--0-0--0--0--0--0-0--0--0-0--0--0-0-0--0-0-|x3
|-4--4--4--4-5--5--5--5--5-4--4--5-5--9--9-9-7--7-7-|
|---------------------------------------------------|
|---------------------------------------------------|

|------------------------------------------------------------------------|
|------------------------------------------------------------------------|
|-0--0--0--0-0--0--0--0--0-0--0--0-0--0000000000000000-00000000-00000000-|
|-4--4--4--4-5--5--5--5--5-4--4--5-5--9797979797979797-75757575-57575757-|
|------------------------------------------------------------------------|
|------------------------------------------------------------------------|



Bridge 2?:

|--------------------------------------------------|
|-9~----9~----7~----5~----5~----3~----5~----4~-----|
|-9~----8~----7~----6~----5~----4~----5~----4~-----|
|-9~----9~----7~----7~----5~----5~----5~----4~-----|
|-7~----6~----5~----4~----3~----2~----3~----2~-----|
|--------------------------------------------------|



Chorus again:

|-------------------------------------------------------|
|-----9-----9-9------9-----9---9--7---7--7----55555555--|
|-----9-----9-9------9-----9---9--7---7--7----66666666--|x4
|---------------------------------------------77777777--|
|-7-7---7-7------7-7---7-7---7------5---5---------------|
|-------------------------------------------------------|

Outro:

|-------------------------------------------------------|
|-----9-----9-9------9-----9---9--7---7--7----55555555--|
|-----9-----9-9------9-----9---9--7---7--7----66666666--|x2
|---------------------------------------------77777777--|
|-7-7---7-7------7-7---7-7---7------5---5---------------|
|-------------------------------------------------------|

End.
Добавлено: 21.04.2016
Вам также может быть интересно:
Другие материалы по этой песне:
  • Аккорды и текст

Страница создана 21.04.2016
http://primanota.ru/antemasque/domino-rain-chords.htm
Привет, Гость.
Предлагаем пройти революционный курс по гитаре.
Подарок от PrimaNota.Ru, забирай!