PrimaNota.ru - самый крупный в мире бесплатный архив песенных текстов, аккордов, табулатур и нот


Antarctigo Vespucci - 100 Years - таба, видео

Регистрация Запомнить меня
Войти через:  Facebook Google Twitter Vk Yandex Mail.ru

Antarctigo Vespucci - 100 Years - таба, видео

Печатать
Просмотров: 122
-------------------------------------------------------------------------------
                             100 Years - Antarctigo Vespucci
-------------------------------------------------------------------------------
Tabbed by: Majennta

Tuning: Standard
I saw there was no tab up for this, so I watched a few live videos and tried to figure out
the intro and chords to the song. If there are any mistakes please let me know in the comments!

h - hammer on

e|---------------------------------------------------------------------------|
B|---------------------------------------------------------------------------|
G|---------0-----------------------------------------------------------------|
D|----0h2----2--------2--------------2--------------2------------------------|
A|--3--------------3-----3-------3------3-------3------3---------------------|
E|--------------1-------------3--------------1-------------------------------|

this part is played through out the whole song. the only part there are actual chords
is on the verse "And it seems like you mean it, when you say that you need me/And it 
feels so wonderful when you are near/Please be mine for 100 years/". 

The chords in order are: F , G , C , Am , F , G , C , D , F , G 
You don't have to play F and G barred, but I found it much easier if I did. 

   F (barred)      G (barred)     C      Am     D
e|-1---------------3--------------0-------0-----2----------------------------|
B|-1---------------3--------------1-------1-----3----------------------------|
G|-2---------------4--------------0-------2-----2----------------------------|
D|-3---------------5--------------2-------2-----0----------------------------|
A|-3---------------5--------------3-------0----------------------------------|
E|-1---------------3---------------------------------------------------------|


Hope you enjoyed! xoxo

Добавлено: 06.08.2015
Другие материалы по этой песне:
  • Аккорды и текст

Страница создана 06.08.2015
http://primanota.ru/antarctigo-vespucci/100-years-chords.htm
Привет, Гость.
Предлагаем пройти революционный курс по гитаре.
Подарок от PrimaNota.Ru, забирай!