PrimaNota.ru - самый крупный в мире бесплатный архив песенных текстов, аккордов, табулатур и нот


Antagony - Cultivate And Collapse - таба, видео

Регистрация Запомнить меня
Войти через:  Facebook Google Twitter Vk Yandex Mail.ru

Antagony - Cultivate And Collapse - таба, видео

Печатать
Просмотров: 110
-------------------------------------------------------------------------------
                       Cultivate And Collapse - Antagony
-------------------------------------------------------------------------------
Tabbed by: Alain Cloutier
Email: six_inch_of_bl0od@hotmail.com

Tuning: B,F#,B,E,G#,C#


Duration Legend
---------------
W - whole
H - half
Q - quarter
E - 8th
S - 16th
T - 32nd
X - 64th
. - note dotted


Tablature Legend
----------------

PM - palm mute
NH - natural harmonic
AH - artificial harmonic
h - hammer on
p - pull off
b - bend
br - bendRelease
S - shift slide
/ -  slide into from below or out of upwards
\ -  slide into from above or out of downwards
~ - vibrato
TP - tremolo picking
^ - brush up
v - brush down


Guitar 1
      W                   W                                   W                 
C#||-------------------|-------------------|-------|-------|-------------------|
G#||--3----------------|--L----------------|-------|-------|-------------------|
E ||-------------------|-------------------|-------|-------|-------------------|
B ||-------------------|-------------------|-------|-------|--0----------------|
F#||-------------------|-------------------|-------|-------|-------------------|
B ||-------------------|-------------------|-------|-------|-------------------|


  W                   W                    W                 
-------------------|-------------------|--------------------|
-------------------|-------------------|--------------------|
-------------------|--7----------------|--11----------------|
--L----------------|-------------------|--------------------|
-------------------|-------------------|--------------------|
-------------------|-------------------|--------------------|


  ^    ^    ^    ^       ^    ^    ^    ^       ^    ^    ^    ^     
  Q    Q    Q    Q       Q    Q    Q    Q       Q    Q    Q    Q     
----------------------|----------------------|----------------------|
----------------------|----------------------|----------------------|
--2----2----2----2----|--2----3----3----3----|--3----3----3----3----|
--0----0----0----0----|--0----0----0----0----|--0----0----0----0----|
----------------------|----------------------|----------------------|
----------------------|----------------------|----------------------|


  ^    ^    ^    ^       ^    ^    ^    ^       ^    ^    ^    ^     
  Q    Q    Q    Q       Q    Q    Q    Q       Q    Q    Q    Q     
----------------------|----------------------|----------------------|
----------------------|----------------------|----------------------|
--3----2----2----2----|--2----2----2----2----|--2----3----3----3----|
--0----0----0----0----|--0----0----0----0----|--0----0----0----0----|
----------------------|----------------------|----------------------|
----------------------|----------------------|----------------------|


  ^    ^    ^    ^       ^    ^    ^    ^                             
  Q    Q    Q    Q       Q    Q    Q    Q       Q    Q     Q    Q     
----------------------|----------------------|-----------------------|
----------------------|----------------------|-----------------------|
--3----3----3----3----|--3----2----2----2----|------------11---------|
--0----0----0----0----|--0----0----0----0----|--0----7----------0----|
----------------------|----------------------|-----------------------|
----------------------|----------------------|-----------------------|


  Q     Q    Q     Q       Q    Q    Q    Q       Q    Q    Q    Q     
------------------------|----------------------|----------------------|
------------------------|----------------------|----------------------|
-------11---------11----|------------7---------|-------7---------7----|
--7----------7----------|--0----8---------0----|--8---------8---------|
------------------------|----------------------|----------------------|
------------------------|----------------------|----------------------|


  Q    Q     Q    Q       Q     Q    Q     Q       Q    Q    Q    Q     
-----------------------|------------------------|----------------------|
-----------------------|------------------------|----------------------|
------------11---------|-------11---------11----|------------7---------|
--0----7----------0----|--7----------7----------|--0----8---------0----|
-----------------------|------------------------|----------------------|
-----------------------|------------------------|----------------------|


  Q    Q    Q    Q       Q     Q     Q    Q        Q     Q     Q     Q     
----------------------|------------------------|--------------------------|
----------------------|------------------------|--------------------------|
-------7---------7----|-------------14---------|--------14----------14----|
--8---------8---------|--0----12----------0----|--12----------12----------|
----------------------|------------------------|--------------------------|
----------------------|------------------------|--------------------------|


  Q     Q     Q    Q        Q     Q     Q     Q       Q     Q     Q    Q     
------------------------|--------------------------|------------------------|
------------------------|--------------------------|------------------------|
-------------15---------|--------15----------15----|-------------14---------|
--0----12----------0----|--12----------12----------|--0----12----------0----|
------------------------|--------------------------|------------------------|
------------------------|--------------------------|------------------------|


   Q     Q     Q     Q       Q     Q     Q    Q        Q     Q     Q     Q     
--------------------------|------------------------|--------------------------|
--------------------------|------------------------|--------------------------|
--------14----------14----|-------------15---------|--------15----------15----|
--12----------12----------|--0----12----------0----|--12----------12----------|
--------------------------|------------------------|--------------------------|
--------------------------|------------------------|--------------------------|


  Q     Q     Q    Q        Q     Q     Q     Q       Q     Q     Q    Q     
------------------------|--------------------------|------------------------|
-------------15---------|--------15----------15----|-------------16---------|
------------------------|--------------------------|------------------------|
--0----12----------0----|--12----------12----------|--0----12----------0----|
------------------------|--------------------------|------------------------|
------------------------|--------------------------|------------------------|


   Q     Q     Q     Q       Q     Q     Q    Q        Q     Q     Q     Q     
--------------------------|------------------------|--------------------------|
--------16----------16----|-------------15---------|--------15----------15----|
--------------------------|------------------------|--------------------------|
--12----------12----------|--0----12----------0----|--12----------12----------|
--------------------------|------------------------|--------------------------|
--------------------------|------------------------|--------------------------|


                                                           PM   PM   PM    
  Q     Q     Q    Q        Q     Q     Q     Q       Q    Q    Q    Q     
------------------------|--------------------------|----------------------|
-------------15---------|--------18----------15----|----------------------|
------------------------|--------------------------|----------------------|
--0----12----------0----|--12----------12----------|--0-------------------|
------------------------|--------------------------|--0----0----0----0----|
------------------------|--------------------------|--0----0----0----0----|


  PM               PM PM         PM PM PM PM PM PM         PM PM      PM    
  Q     Q     Q    E  E     Q    E  E  E  E  E  E     Q    E  E  Q    Q     
-------------------------|-------------------------|-----------------------|
-------------------------|-------------------------|-----------------------|
-------15----15----------|-------------------------|-----------------------|
-------------------------|--1----------------------|--1----------1---------|
--0----13----13----0--0--|--1----1--1--1--1--1--1--|--1----1--1--1----1----|
--0----------------0--0--|--1----1--1--1--1--1--1--|--1----1--1--1----1----|


       PM   PM   PM      PM               PM PM         PM PM PM PM PM PM  
  Q    Q    Q    Q       Q     Q     Q    E  E     Q    E  E  E  E  E  E   
----------------------|-------------------------|-------------------------|
----------------------|-------------------------|-------------------------|
----------------------|-------15----15----------|-------------------------|
--0-------------------|-------------------------|--1----------------------|
--0----0----0----0----|--0----13----13----0--0--|--1----1--1--1--1--1--1--|
--0----0----0----0----|--0----------------0--0--|--1----1--1--1--1--1--1--|


       PM PM      PM           PM PM PM PM PM PM PM    PM PM             PM PM  
  Q    E  E  Q    Q       Q    E  E  E  S  S  E  E     E  E   Q     Q    E  E   
-----------------------|----------------------------|--------------------------|
-----------------------|----------------------------|--------------------------|
-----------------------|----------------------------|--------15----15----------|
--1----------1---------|--0-------------------------|--------------------------|
--1----1--1--1----1----|--0----0--0--0--0--0--0--0--|--0--0--13----13----0--0--|
--1----1--1--1----1----|--0----0--0--0--0--0--0--0--|--0--0--------------0--0--|


   Q     Q     Q     Q        Q     Q     Q     Q     
--------------------------|--------------------------|
--------------------------|--16----16----16----16----|
--15----15----15----15----|--15----15----15----15----|
--13----13----13----13----|--13----13----13----13----|
--------------------------|--------------------------|
--------------------------|--------------------------|


       PM PM PM PM PM PM PM    PM PM             PM PM  
  Q    E  E  E  S  S  E  E     E  E   Q     Q    E  E   
----------------------------|--------------------------|
----------------------------|--------------------------|
----------------------------|--------15----15----------|
--0-------------------------|--------------------------|
--0----0--0--0--0--0--0--0--|--0--0--13----13----0--0--|
--0----0--0--0--0--0--0--0--|--0--0--------------0--0--|


   Q     Q     Q     Q        Q     Q    Q    Q     
--------------------------|------------------------|
--------------------------|------------------------|
--15----15----15----15----|--15----15--------------|
--13----13----13----13----|--13----13--------------|
--------------------------|------------------------|
--------------------------|------------------------|


  T T T T T T T T T T T T T T T T T T T T T T T T T T T T T T T T  
------------------------------------------------------------------|
------------------------------------------------------------------|
------------------------------------------------------------------|
--7-7-7-7-7-7-7-7-7-7-7-7-----------------------------------------|
--------------------------8-8-8-8-5-5-5-5-5-5-5-5-5-5-5-5-0-0-0-0-|
------------------------------------------------------------------|


  T T T T T T T T  T  T  T  T  T  T T T T T T T T T T T T T T T T T T T  
------------------------------------------------------------------------|
------------------------------------------------------------------------|
------------------------------------------------------------------------|
------------------10-10-10-10-10-10-------------------------------------|
--7-7-7-7-7-7-7-7-------------------7-7-8-8-8-8-8-8-8-8-8-8-8-8-8-8-8-8-|
------------------------------------------------------------------------|


  T T T T T T T T T T T T T T T T T T T T T T T T T T T T T T T T  
------------------------------------------------------------------|
------------------------------------------------------------------|
------------------------------------------------------------------|
--7-7-7-7-7-7-7-7-7-7-7-7-----------------------------------------|
--------------------------8-8-8-8-5-5-5-5-5-5-5-5-5-5-5-5-0-0-0-0-|
------------------------------------------------------------------|


  T T T T T T T T  T  T  T  T  T  T T T T T T T T T T T T T T T T T T T  
------------------------------------------------------------------------|
------------------------------------------------------------------------|
------------------------------------------------------------------------|
------------------10-10-10-10-10-10-------------------------------------|
--7-7-7-7-7-7-7-7-------------------7-7-8-8-8-8-8-8-8-8-8-8-8-8-8-8-8-8-|
------------------------------------------------------------------------|


  T T T T T T T T T T T T T T T T T T T T T T T T T T T T T T T T  
------------------------------------------------------------------|
------------------------------------------------------------------|
------------------------------------------------------------------|
--7-7-7-7-7-7-7-7-7-7-7-7-----------------------------------------|
--------------------------8-8-8-8-5-5-5-5-5-5-5-5-5-5-5-5-0-0-0-0-|
------------------------------------------------------------------|


  T T T T T T T T  T  T  T  T  T  T T T T T T T T T T T T T T T T T T T  
------------------------------------------------------------------------|
------------------------------------------------------------------------|
------------------------------------------------------------------------|
------------------10-10-10-10-10-10-------------------------------------|
--7-7-7-7-7-7-7-7-------------------7-7-8-8-8-8-8-8-8-8-8-8-8-8-8-8-8-8-|
------------------------------------------------------------------------|


  T T T T T T T T T T T T T T T T T T T T T T T T T T T T T T T T  
------------------------------------------------------------------|
------------------------------------------------------------------|
------------------------------------------------------------------|
--7-7-7-7-7-7-7-7-7-7-7-7-----------------------------------------|
--------------------------8-8-8-8-5-5-5-5-5-5-5-5-5-5-5-5-0-0-0-0-|
------------------------------------------------------------------|


  T T T T T T T T  T  T  T  T  T  T T T T T T T T T T T T T T T T T T T  
------------------------------------------------------------------------|
------------------------------------------------------------------------|
------------------------------------------------------------------------|
------------------10-10-10-10-10-10-------------------------------------|
--7-7-7-7-7-7-7-7-------------------7-7-8-8-8-8-8-8-8-8-8-8-8-8-8-8-8-8-|
------------------------------------------------------------------------|


   Not sure about the Second Guitar                                             
   T                                T  T  T  T  T  T  T  T  T  T  T  T  T  T  T 
--------------------------------------------------------------------------------
--------------------------------------------------------------------------------
--------------------------------------------------------------------------------
--------------------------------------------------------------------------------
--12-------------------------------12-12-12-12-12-12-12-12-12-12-12-------------
--------------------------------------------------------------------15-15-15-15-


   T  T  T  T  T  T  T  T  T  T  T  T  T  T  T  T  T  T  T  T  T  T  T  T  T  T 
--------------------------------------------------------------------------------
--------------------------------------------------------------------------------
--------------------------------------------------------------------------------
--------------------------------------------------15-15-15-15-15-15-15-15-15-15-
--------------------------15-15-15-15-15-15-------------------------------------
--14-14-14-14-14-14-14-14-------------------14-14-------------------------------


   T  T  T  T  T  T  T  T  T  T  T  T  T  T  T  T  T  T  T  T  T  T  T  T  T  T 
--------------------------------------------------------------------------------
--------------------------------------------------------------------------------
--------------------------------------------------------------------------------
--------------------------------------------------------------------------------
--12-12-12-12-12-12-12-12-12-12-12-12-------------------------------------------
--------------------------------------15-15-15-15-12-12-12-12-12-12-12-12-12-12-


   T  T  T  T  T  T  T  T  T  T  T  T  T  T  T  T  T  T  T  T  T  T  T  T  T  T 
--------------------------------------------------------------------------------
--------------------------------------------------------------------------------
--------------------------------------------------------------------------------
--------------------------------------------------15-15-15-15-15-15-15-15-15-15-
--------------------------15-15-15-15-15-15-------------------------------------
--14-14-14-14-14-14-14-14-------------------14-14-------------------------------


  T T T T T T T T T T T T T T T T T T T T T T T T T T T T T T T T  
------------------------------------------------------------------|
------------------------------------------------------------------|
------------------------------------------------------------------|
--7-7-7-7-7-7-7-7-7-7-7-7-----------------------------------------|
--------------------------8-8-8-8-5-5-5-5-5-5-5-5-5-5-5-5-0-0-0-0-|
------------------------------------------------------------------|


  T T T T T T T T  T  T  T  T  T  T T T T T T T T T T T T T T T T T T T  
------------------------------------------------------------------------|
------------------------------------------------------------------------|
------------------------------------------------------------------------|
------------------10-10-10-10-10-10-------------------------------------|
--7-7-7-7-7-7-7-7-------------------7-7-8-8-8-8-8-8-8-8-8-8-8-8-8-8-8-8-|
------------------------------------------------------------------------|


  T T T T T T T T T T T T T T T T T T T T T T T T T T T T T T T T  
------------------------------------------------------------------|
------------------------------------------------------------------|
------------------------------------------------------------------|
--7-7-7-7-7-7-7-7-7-7-7-7-----------------------------------------|
--------------------------8-8-8-8-5-5-5-5-5-5-5-5-5-5-5-5-0-0-0-0-|
------------------------------------------------------------------|


  T T T T T T T T  T  T  T  T  T  T T T T T T T T T T T T T T T T T T T  
------------------------------------------------------------------------|
------------------------------------------------------------------------|
------------------------------------------------------------------------|
------------------10-10-10-10-10-10-------------------------------------|
--7-7-7-7-7-7-7-7-------------------7-7-8-8-8-8-8-8-8-8-8-8-8-8-8-8-8-8-|
------------------------------------------------------------------------|


   T  T  T  T  T  T  T  T  T  T  T  T  T  T  T  T  T  T  T  T  T  T  T  T  T  T 
--------------------------------------------------------------------------------
--------------------------------------------------------------------------------
--------------------------------------------------------------------------------
--------------------------------------------------------------------------------
--12-12-12-12-12-12-12-12-12-12-12-12-------------------------------------------
--------------------------------------15-15-15-15-12-12-12-12-12-12-12-12-12-12-


   T  T  T  T  T  T  T  T  T  T  T  T  T  T  T  T  T  T  T  T  T  T  T  T  T  T 
--------------------------------------------------------------------------------
--------------------------------------------------------------------------------
--------------------------------------------------------------------------------
--------------------------------------------------15-15-15-15-15-15-15-15-15-15-
--------------------------15-15-15-15-15-15-------------------------------------
--14-14-14-14-14-14-14-14-------------------14-14-------------------------------


   T  T  T  T  T  T  T  T  T  T  T  T  T  T  T  T  T  T  T  T  T  T  T  T  T  T 
--------------------------------------------------------------------------------
--------------------------------------------------------------------------------
--------------------------------------------------------------------------------
--------------------------------------------------------------------------------
--12-12-12-12-12-12-12-12-12-12-12-12-------------------------------------------
--------------------------------------15-15-15-15-12-12-12-12-12-12-12-12-12-12-


   T  T  T  T  T  T  T  T  T  T  T  T  T  T  T  T  T  T  T  T  T  T  T  T  T  T 
--------------------------------------------------------------------------------
--------------------------------------------------------------------------------
--------------------------------------------------------------------------------
--------------------------------------------------15-15-15-15-15-15-15-15-15-15-
--------------------------15-15-15-15-15-15-------------------------------------
--14-14-14-14-14-14-14-14-------------------14-14-------------------------------


  PM PM   PM PM PM PM PM    PM PM   PM PM PM   PM  
  E  Q    E  E  E  E  E     E  Q    E  E  Q    E   
-------------------------|------------------------|
-------------------------|------------------------|
-------------------------|------------------------|
-------------------------|------------------------|
--0--0----0--1--1--0--0--|--1--1----0--1--1----1--|
--0--0----0--1--1--0--0--|--1--1----0--1--1----1--|


  PM PM PM PM PM PM PM PM PM PM PM PM    PM PM   PM PM PM   PM  
  S  S  E  S  S  E  S  S  E  S  S  E     E  Q    E  E  Q    E   
--------------------------------------|------------------------|
--------------------------------------|------------------------|
--------------------------------------|------------------------|
--------------------------------------|------------------------|
--0--0--0--0--0--0--1--1--1--0--0--0--|--1--1----0--1--1----1--|
--0--0--0--0--0--0--1--1--1--0--0--0--|--1--1----0--1--1----1--|


  PM PM   PM PM PM PM PM    PM PM   PM PM PM   PM  
  E  Q    E  E  E  E  E     E  Q    E  E  Q    E   
-------------------------|------------------------|
-------------------------|------------------------|
-------------------------|------------------------|
-------------------------|------------------------|
--0--0----0--1--1--0--0--|--1--1----0--1--1----1--|
--0--0----0--1--1--0--0--|--1--1----0--1--1----1--|


  PM PM PM PM PM PM PM PM PM PM PM PM    PM PM         PM         
  S  S  E  S  S  E  S  S  E  S  S  E     E  Q    E  E  Q    Q     
--------------------------------------|--------------------------|
--------------------------------------|--------------------------|
--------------------------------------|--------------------------|
--------------------------------------|--------------------------|
--0--0--0--0--0--0--1--1--1--0--0--0--|--1--1----------1---------|
--0--0--0--0--0--0--1--1--1--0--0--0--|--1--1----------1---------|


  PM PM   PM PM PM PM PM    PM PM   PM PM PM   PM  
  E  Q    E  E  E  E  E     E  Q    E  E  Q    E   
-------------------------|------------------------|
-------------------------|------------------------|
-------------------------|------------------------|
-------------------------|------------------------|
--0--0----0--1--1--0--0--|--1--1----0--1--1----1--|
--0--0----0--1--1--0--0--|--1--1----0--1--1----1--|


  PM PM PM PM PM PM PM PM PM PM PM PM    PM PM   PM PM PM   PM    
  S  S  E  S  S  E  S  S  E  S  S  E     E  Q    E  E  E    Q     
--------------------------------------|--------------------------|
--------------------------------------|--------------------------|
--------------------------------------|--------------------------|
--------------------------------------|--------------------------|
--0--0--0--0--0--0--1--1--1--0--0--0--|--1--1----0--1--1--<>6----|
--0--0--0--0--0--0--1--1--1--0--0--0--|--1--1----0--1--1---------|


  PM PM   PM PM PM PM PM    PM PM   PM PM PM   PM  
  E  Q    E  E  E  E  E     E  Q    E  E  Q    E   
-------------------------|------------------------|
-------------------------|------------------------|
-------------------------|------------------------|
-------------------------|------------------------|
--0--0----0--1--1--0--0--|--1--1----0--1--1----1--|
--0--0----0--1--1--0--0--|--1--1----0--1--1----1--|


  PM PM PM PM PM PM PM PM PM PM PM PM    PM                   
  S  S  E  S  S  E  S  S  E  S  S  E     Q    Q    Q    Q     
--------------------------------------|----------------------|
--------------------------------------|----------------------|
--------------------------------------|----------------------|
--------------------------------------|----------------------|
--0--0--0--0--0--0--1--1--1--0--0--0--|--1-------------------|
--0--0--0--0--0--0--1--1--1--0--0--0--|--1-------------------|


  PM PM   PM PM PM PM PM PM PM PM PM PM    PM                         
  E  Q    S  S  S  S  S  S  S  S  S  S     Q    S S S S S. E  S. E.   
----------------------------------------|----------------------------|
----------------------------------------|----------------------------|
----------------------------------------|----------------------------|
----------------------------------------|----------------------------|
--0--0----0--0--1--1--1--1--0--0--0--0--|--1----9-9-9-9-9--8--4--L---|
--0--0----0--0--1--1--1--1--0--0--0--0--|--1-------------------------|


  PM PM PM   PM PM PM PM PM PM PM PM    PM                         
  S  S  Q    S  S  E  S  S  E  S  S     Q    S S S S S. E  S. E.   
-------------------------------------|----------------------------|
-------------------------------------|----------------------------|
-------------------------------------|----------------------------|
-------------------------------------|---------------------9--L---|
--0--0--0----0--0--1--1--1--0--0--0--|--1----9-9-9-9-9--8---------|
--0--0--0----0--0--1--1--1--0--0--0--|--1-------------------------|


  PM PM   PM PM PM PM PM PM PM PM PM PM    PM                         
  E  Q    S  S  S  S  S  S  S  S  S  S     Q    S S S S S. E  S. E.   
----------------------------------------|----------------------------|
----------------------------------------|----------------------------|
----------------------------------------|----------------------------|
----------------------------------------|----------------------------|
--0--0----0--0--1--1--1--1--0--0--0--0--|--1----9-9-9-9-9--8--4--L---|
--0--0----0--0--1--1--1--1--0--0--0--0--|--1-------------------------|


  PM PM PM   PM PM PM PM PM PM PM PM    PM                         
  S  S  Q    S  S  E  S  S  E  S  S     Q    S S S S S. E  S. E.   
-------------------------------------|----------------------------|
-------------------------------------|----------------------------|
-------------------------------------|----------------------------|
-------------------------------------|---------------------9--L---|
--0--0--0----0--0--1--1--1--0--0--0--|--1----9-9-9-9-9--8---------|
--0--0--0----0--0--1--1--1--0--0--0--|--1-------------------------|


  PM PM PM PM PM PM PM PM PM PM PM PM  
  S  S  E  S  S  E  S  S  E  S  S  E   
--------------------------------------|
--------------------------------------|
--------------------------------------|
--------------------------------------|
--0--0--0--0--0--0--1--1--1--0--0--0--|
--0--0--0--0--0--0--1--1--1--0--0--0--|


  Not sure about the Second Guitar                                  
  PM                               PM PM                            
  S                                S  E   S  S  S  S  S. E   S.E.   
-------------------------------------------------------------------|
-------------------------------------------------------------------|
-----------------------------------------17-17-17-17-17-16--12-L---|
-------------------------------------------------------------------|
--1--------------------------------1--1----------------------------|
--1--------------------------------1--1----------------------------|


  PM PM PM PM PM PM PM PM PM PM PM PM    PM PM PM                            
  S  S  E  S  S  E  S  S  E  S  S  E     S  S  E   S  S  S  S  S. E   S.E.   
--------------------------------------|-------------------------------------|
--------------------------------------|------------------------------17-L---|
--------------------------------------|-----------17-17-17-17-17-16---------|
--------------------------------------|-------------------------------------|
--0--0--0--0--0--0--1--1--1--0--0--0--|--1--1--1----------------------------|
--0--0--0--0--0--0--1--1--1--0--0--0--|--1--1--1----------------------------|


  PM PM PM PM PM PM PM PM PM PM PM PM    PM PM PM                            
  S  S  E  S  S  E  S  S  E  S  S  E     S  S  E   S  S  S  S  S. E   S.E.   
--------------------------------------|-------------------------------------|
--------------------------------------|-------------------------------------|
--------------------------------------|-----------17-17-17-17-17-16--12-L---|
--------------------------------------|-------------------------------------|
--0--0--0--0--0--0--1--1--1--0--0--0--|--1--1--1----------------------------|
--0--0--0--0--0--0--1--1--1--0--0--0--|--1--1--1----------------------------|


  PM PM PM PM PM PM PM PM PM PM PM PM    PM PM PM                            
  S  S  E  S  S  E  S  S  E  S  S  E     S  S  E   S  S  S  S  S. E   S.E.   
--------------------------------------|-------------------------------------|
--------------------------------------|------------------------------17-L---|
--------------------------------------|-----------17-17-17-17-17-16---------|
--------------------------------------|-------------------------------------|
--0--0--0--0--0--0--1--1--1--0--0--0--|--1--1--1----------------------------|
--0--0--0--0--0--0--1--1--1--0--0--0--|--1--1--1----------------------------|


  W                   W                   W                 
-------------------|-------------------|-------------------|
-------------------|-------------------|-------------------|
-------------------|-------------------|-------------------|
-------------------|-------------------|-------------------|
--0----------------|--L----------------|--L----------------|
--0----------------|--L----------------|--L----------------|


  H        H           H        Q    Q       H        H         
--------------------|---------------------|--------------------|
--------------------|---------------------|--------------------|
--------------------|---------------------|--------------------|
-----------8--------|--7------------------|--6--------8--------|
--L-----------------|-----------8----5----|--------------------|
--L-----------------|---------------------|--------------------|


  H        Q    Q       H        E  E  E  E   
---------------------|-----------------------|
---------------------|-----------------------|
---------------------|-----------------------|
--7------------------|--6--------8--8--8--8--|
-----------8----5----|-----------------------|
---------------------|-----------------------|


  |-3-| |-3-| |-3-| |-3-| |-3-| |-3-| |-3-| |-3-|  
  S S S S S S S S S S S S S S S S S S S S S S S S  
--------------------------------------------------|
--------------------------------------------------|
--------------------------------------------------|
--7-7-7-7-7-7-7-7-7-7-7-7-------------------------|
--------------------------8-8-8-8-8-8-5-5-5-5-5-5-|
--------------------------------------------------|


  |-3-| |-3-| |-3-| |-3-| |-3-| |-3-| |-3-| |-3-|  
  S S S S S S S S S S S S S S S S S S S S S S S S  
--------------------------------------------------|
--------------------------------------------------|
--------------------------------------------------|
--6-6-6-6-6-6-6-6-6-6-6-6-8-8-8-8-8-8-8-8-8-8-8-8-|
--------------------------------------------------|
--------------------------------------------------|


  |-3-| |-3-| |-3-| |-3-| |-3-| |-3-| |-3-| |-3-|  
  S S S S S S S S S S S S S S S S S S S S S S S S  
--------------------------------------------------|
--------------------------------------------------|
--------------------------------------------------|
--7-7-7-7-7-7-7-7-7-7-7-7-------------------------|
--------------------------8-8-8-8-8-8-5-5-5-5-5-5-|
--------------------------------------------------|


  |-3-| |-3-| |-3-| |-3-| |-3-| |-3-| |-3-| |-3-|                          
  S S S S S S S S S S S S S S S S S S S S S S S S     H         Q    Q     
--------------------------------------------------|-----------------------|
--------------------------------------------------|--10-------------------|
--------------------------------------------------|---9--------10----7----|
--6-6-6-6-6-6-6-6-6-6-6-6-8-8-8-8-8-8-8-8-8-8-8-8-|---7--------10----7----|
--------------------------------------------------|-------------8----5----|
--------------------------------------------------|-----------------------|


  H         H            H         Q    Q       H         H         
---------------------|-----------------------|---------------------|
--9--------11--------|--10-------------------|--9--------11--------|
--8--------10--------|---9--------10----7----|--8--------10--------|
--6---------8--------|---7--------10----7----|--6---------8--------|
---------------------|-------------8----5----|---------------------|
---------------------|-----------------------|---------------------|


   Not Sure about this part                                    
   H                        Q     Q        H         H         
---------------------------------------|----------------------|
---------------------------------------|--16------------------|
--14-----------------------17----18----|------------15--------|
---------------------------------------|----------------------|
---------------------------------------|----------------------|
---------------------------------------|----------------------|


   H         Q     Q        H         H            H         Q    Q     
------------------------|----------------------|-----------------------|
------------------------|--16------------------|--10-------------------|
--14--------17----18----|------------15--------|---9--------10----7----|
------------------------|----------------------|---7--------10----7----|
------------------------|----------------------|-------------8----5----|
------------------------|----------------------|-----------------------|


  H         H            H         Q    Q       H         H         
---------------------|-----------------------|---------------------|
--9--------11--------|--10-------------------|--9--------11--------|
--8--------10--------|---9--------10----7----|--8--------10--------|
--6---------8--------|---7--------10----7----|--6---------8--------|
---------------------|-------------8----5----|---------------------|
---------------------|-----------------------|---------------------|


    PM PM PM PM PM PM PM          PM PM PM PM PM PM PM  
  S S  E  E  E  E  E  E  E     E  E  E  E  E  E  E  E   
----------------------------|--------------------------|
----------------------------|--------------------------|
----------------------------|--------------------------|
--0----------------------1--|--0-----------------------|
--0-0--0--0--0--0--0--0--1--|--0--0--0--0--0--5--4--2--|
--0-0--0--0--0--0--0--0--1--|--0--0--0--0--0--5--4--2--|


                                            PM PM PM  
  E  E  E  E  E  E  E  E     E  E  E  E  E  E  E  E   
--------------------------|--------------------------|
--------------------------|--------------------------|
--------------------------|--------------------------|
--0--------------------1--|--0-----------------------|
--0--------------------1--|--0--------------5--4--2--|
--0--------------------1--|--0--------------5--4--2--|


    PM PM PM PM PM PM PM          PM PM PM PM PM PM PM  
  S S  E  E  E  E  E  E  E     E  E  E  E  E  E  E  E   
----------------------------|--------------------------|
----------------------------|--------------------------|
----------------------------|--------------------------|
--0----------------------1--|--0-----------------------|
--0-0--0--0--0--0--0--0--1--|--0--0--0--0--0--5--4--2--|
--0-0--0--0--0--0--0--0--1--|--0--0--0--0--0--5--4--2--|


    PM PM PM PM PM PM PM          PM PM PM PM PM PM PM  
  S S  E  E  E  E  E  E  E     E  E  E  E  E  E  E  E   
----------------------------|--------------------------|
----------------------------|--------------------------|
----------------------------|--------------------------|
--0----------------------1--|--0-----------------------|
--0-0--0--0--0--0--0--0--1--|--0--0--0--0--0--5--4--2--|
--0-0--0--0--0--0--0--0--1--|--0--0--0--0--0--5--4--2--|


    PM PM PM PM PM PM PM          PM PM PM PM PM PM PM  
  S S  E  E  E  E  E  E  E     E  E  E  E  E  E  E  E   
----------------------------|--------------------------|
----------------------------|--------------------------|
----------------------------|--------------------------|
--0----------------------1--|--0-----------------------|
--0-0--0--0--0--0--0--0--1--|--0--0--0--0--0--5--4--2--|
--0-0--0--0--0--0--0--0--1--|--0--0--0--0--0--5--4--2--|


    PM PM PM PM PM PM PM          PM PM PM PM PM PM PM  
  S S  E  E  E  E  E  E  E     E  E  E  E  E  E  E  E   
----------------------------|--------------------------|
----------------------------|--------------------------|
----------------------------|--------------------------|
--0----------------------1--|--0-----------------------|
--0-0--0--0--0--0--0--0--1--|--0--0--0--0--0--5--4--2--|
--0-0--0--0--0--0--0--0--1--|--0--0--0--0--0--5--4--2--|


     PM PM PM PM PM PM PM PM PM          PM PM PM PM PM PM PM PM PM  
  E  S  S  E  S  S  E  S  S  E  E     E  S  S  E  S  S  E  E  E  E   
-----------------------------------|--------------------------------|
-----------------------------------|--------------------------------|
-----------------------------------|--------------------------------|
--0-----------------------------1--|--0-----------------------------|
--0--0--0--0--0--0--0--0--0--0--1--|--0--0--0--0--0--0--0--5--4--2--|
--0--0--0--0--0--0--0--0--0--0--1--|--0--0--0--0--0--0--0--5--4--2--|


     PM PM PM PM PM PM PM PM PM          PM PM PM PM PM PM PM PM PM  
  E  S  S  E  S  S  E  S  S  E  E     E  S  S  E  S  S  E  E  E  E   
-----------------------------------|--------------------------------|
-----------------------------------|--------------------------------|
-----------------------------------|--------------------------------|
--0-----------------------------1--|--0-----------------------------|
--0--0--0--0--0--0--0--0--0--0--1--|--0--0--0--0--0--0--0--5--4--2--|
--0--0--0--0--0--0--0--0--0--0--1--|--0--0--0--0--0--0--0--5--4--2--|


                                            PM PM PM  
  E  E  E  E  E  E  E  E     E  E  E  E  E  E  E  E   
--------------------------|--------------------------|
--------------------------|--------------------------|
--------------------------|--------------------------|
--0--------------------1--|--0-----------------------|
--0--------------------1--|--0--------------5--4--2--|
--0--------------------1--|--0--------------5--4--2--|


                                            PM PM PM  
  E  E  E  E  E  E  E  E     E  E  E  E  E  E  E  E   
--------------------------|--------------------------|
--------------------------|--------------------------|
--------------------------|--------------------------|
--0--L--L--L--L--L--L--1--|--0-----------------------|
--0--L--L--L--L--L--L--1--|--0--------------5--4--2--|
--0--L--L--L--L--L-----1--|--0--------------5--4--2--|


       PM PM PM PM PM PM PM PM      PM PM PM PM PM PM PM PM  
  S  S S  S  T  T  S  T  T  S  S  S S  S  T  T  S  T  T  S   
------------------------------------------------------------|
------------------------------------------------------------|
------------------------------------------------------------|
------------------------------------------------------------|
--2s-1-0--0--0--0--0--0--0--0--2s-1-0--0--0--0--0--0--0--0--|
--2s-1-0--0--0--0--0--0--0--0--2s-1-0--0--0--0--0--0--0--0--|


       PM PM      PM PM      PM PM PM PM PM        
  S  S S  S  S  S S  S  S  S S  S  T  T  S    E    
--------------------------------------------------|
--------------------------------------------------|
--------------------------------------------<>9b--|
--------------------------------------------------|
--2s-1-0--0--5s-4-0--0--8s-7-0--0--0--0--0--------|
--2s-1-0--0--5s-4-0--0--8s-7-0--0--0--0--0--------|


       PM PM PM PM PM PM PM PM      PM PM PM PM PM PM PM PM  
  S  S S  S  T  T  S  T  T  S  S  S S  S  T  T  S  T  T  S   
------------------------------------------------------------|
------------------------------------------------------------|
------------------------------------------------------------|
------------------------------------------------------------|
--2s-1-0--0--0--0--0--0--0--0--2s-1-0--0--0--0--0--0--0--0--|
--2s-1-0--0--0--0--0--0--0--0--2s-1-0--0--0--0--0--0--0--0--|


       PM PM      PM PM      PM PM PM PM PM        
  S  S S  S  S  S S  S  S  S S  S  T  T  S    E    
--------------------------------------------------|
--------------------------------------------------|
--------------------------------------------<>9b--|
--------------------------------------------------|
--2s-1-0--0--5s-4-0--0--8s-7-0--0--0--0--0--------|
--2s-1-0--0--5s-4-0--0--8s-7-0--0--0--0--0--------|


       PM PM PM PM PM PM PM PM      PM PM PM PM PM PM PM PM  
  S  S S  S  T  T  S  T  T  S  S  S S  S  T  T  S  T  T  S   
------------------------------------------------------------|
------------------------------------------------------------|
------------------------------------------------------------|
------------------------------------------------------------|
--2s-1-0--0--0--0--0--0--0--0--2s-1-0--0--0--0--0--0--0--0--|
--2s-1-0--0--0--0--0--0--0--0--2s-1-0--0--0--0--0--0--0--0--|


       PM PM      PM PM      PM PM PM PM PM        
  S  S S  S  S  S S  S  S  S S  S  T  T  S    E    
--------------------------------------------------|
--------------------------------------------------|
--------------------------------------------<>9b--|
--------------------------------------------------|
--2s-1-0--0--5s-4-0--0--8s-7-0--0--0--0--0--------|
--2s-1-0--0--5s-4-0--0--8s-7-0--0--0--0--0--------|


       PM PM PM PM PM PM PM PM      PM PM PM PM PM PM PM PM  
  S  S S  S  T  T  S  T  T  S  S  S S  S  T  T  S  T  T  S   
------------------------------------------------------------|
------------------------------------------------------------|
------------------------------------------------------------|
------------------------------------------------------------|
--2s-1-0--0--0--0--0--0--0--0--2s-1-0--0--0--0--0--0--0--0--|
--2s-1-0--0--0--0--0--0--0--0--2s-1-0--0--0--0--0--0--0--0--|


       PM PM      PM PM      PM PM PM PM PM        
  S  S S  S  S  S S  S  S  S S  S  T  T  S    E    
--------------------------------------------------|
--------------------------------------------------|
--------------------------------------------<>9b--|
--------------------------------------------------|
--2s-1-0--0--5s-4-0--0--8s-7-0--0--0--0--0--------|
--2s-1-0--0--5s-4-0--0--8s-7-0--0--0--0--0--------|


       PM PM PM PM PM PM PM PM      PM PM PM PM PM PM PM PM  
  S  S S  S  T  T  S  T  T  S  S  S S  S  T  T  S  T  T  S   
------------------------------------------------------------|
------------------------------------------------------------|
------------------------------------------------------------|
------------------------------------------------------------|
--2s-1-0--0--0--0--0--0--0--0--2s-1-0--0--0--0--0--0--0--0--|
--2s-1-0--0--0--0--0--0--0--0--2s-1-0--0--0--0--0--0--0--0--|


       PM PM      PM PM             PM   PM    
  S  S S  S  S  S S  S  S  Q.     S Q    Q     
----------------------------------------------|
----------------------------------------------|
----------------------------------------------|
----------------------------------------------|
--2s-1-0--0--5s-4-0--0--8s-7------L-6----3----|
--2s-1-0--0--5s-4-0--0--8s-7------L-6----3----|


           PM PM PM PM PM PM PM PM             PM PM PM PM   PM PM PM    
                                                  |--3--|    |--3--|     
  E  E  E  E  E  S  S  S  S  S  S     E  E  E  E  S  S  Q    S  S  Q     
-----------------------------------|------------------------------------|
-----------------------------------|------------------------------------|
-----------------------------------|------------------------------------|
-----------------------------------|------------------------------------|
--2--1-----0--0--0--0--0--0--0--0--|--2--1-----0--0--0--0----0--0--0----|
--2--1-----0--0--0--0--0--0--0--0--|--2--1-----0--0--0--0----0--0--0----|


           PM          PM             PM PM PM PM          
  E  E  E  E  E  E  E  E     E  E  E  E  S  S  E    Q      
--------------------------|-------------------------------|
--------------------------|-------------------------------|
--------------------------|-------------------------------|
--------------------------|-----------------------<>4~----|
--2--1-----0--1--2-----0--|--2--1-----0--0--0--0----------|
--2--1-----0--1--2-----0--|--2--1-----0--0--0--0----------|


           PM PM PM PM PM PM PM PM             PM PM PM PM   PM PM PM    
                                                  |--3--|    |--3--|     
  E  E  E  E  E  S  S  S  S  S  S     E  E  E  E  S  S  Q    S  S  Q     
-----------------------------------|------------------------------------|
-----------------------------------|------------------------------------|
-----------------------------------|------------------------------------|
-----------------------------------|------------------------------------|
--2--1-----0--0--0--0--0--0--0--0--|--2--1-----0--0--0--0----0--0--0----|
--2--1-----0--0--0--0--0--0--0--0--|--2--1-----0--0--0--0----0--0--0----|


           PM          PM             PM PM PM PM          
  E  E  E  E  E  E  E  E     E  E  E  E  S  S  E    Q      
--------------------------|-------------------------------|
--------------------------|-------------------------------|
--------------------------|-------------------------------|
--------------------------|-----------------------<>4~----|
--2--1-----0--1--2-----0--|--2--1-----0--0--0--0----------|
--2--1-----0--1--2-----0--|--2--1-----0--0--0--0----------|


  E  E  H.             
---------------------||
---------------------||
---------------------||
---------------------||
--2--1---------------||
--2--1---------------||

END
Добавлено: 22.05.2012
Вам также может быть интересно:
Другие материалы по этой песне:

Страница создана 16.04.2012
http://primanota.ru/antagony/cultivate-and-collapse-chords.htm
Привет, Гость.
Предлагаем пройти революционный курс по гитаре.
Подарок от PrimaNota.Ru, забирай!