PrimaNota.ru - самый крупный в мире бесплатный архив песенных текстов, аккордов, табулатур и нот


Antagony - Awakening - таба, видео

Регистрация Запомнить меня
Войти через:  Facebook Google Twitter Vk Yandex Mail.ru

Antagony - Awakening - таба, видео

Печатать
Просмотров: 120
Tabbed by : Ronny Schubert
Band : Antagony
Song name : The awakening
Tuning : Drop B 2 whole steps down
B F# b E G# C#


Probably my favorite song by this band, good undergroud metal band check them out.

Any questions for concerns, e-mail me at disturbed4e4@Hotmail.com
Enjoy.


_________________
Legend:         |
x - muted note  |
h - hammer on   |
T - Tremelo pick|
PM - Palm mute  |
~ - vibrato     |
________________|


Intro is tremelo picking.
|---------------------------------------------------------------------------|
|---------------------------------------------------------------------------|
|---------------------------------------------------------------------------|
|0000-5555--8888--5555----888-----1212121212---5555----888---10101010-131313|
|---------------------------------------------------------------------------|
|---------------------------------------------------------------------------|
  T     T     T     T      T          T           T      T      T        T

|---------------------------------------------------------------------------|
|---------------------------------------------------------------------------|
|---------------------------------------------------------------------------|
|13131313--8888--5555----101010---7777---4444--1313--101010--777---555---777|
|---------------------------------------------------------------------------|
|---------------------------------------------------------------------------|
     T       T      T      T       T      T       T     T      T    T      T

Verse: (0:19)

|-------------|-----------|---------|------------|
|-------------|-----------|---------|------------|
|-------------|-----------|---------|------------|
|--8-0-0-0-0-0|8-0-0-0-0-0|8-0-0-0-0|8-0-0-0-0-0-|
|--8-0-0-0-0-0|8-0-0-0-0-0|8-0-0-0-0|8-0-0-0-0-0-|
|--8-0-0-0-0-0|8-0-0-0-0-0|8-0-0-0-0|8-0-0-0-0-0-| 14xs
     PM PM PM    PM PM PM    PM PM PM  PM PM PM


(0:53)
|-------------------------------------|
|-------------------------------------|
|-------------------------------------|
|0~--1-1-1-1-0~1-1-1-0-0-0-1~-0-0-0-00|
|0~--1-1-1-1-0~1-1-1-0-0-0-1~-0-0-0-00|
|0~--1-1-1-1-0~1-1-1-0-0-0-1~-0-0-0-00|

|-----------------------------------------------|
|-----------------------------------------------|
|-----------------------------------------------|
|--0|-0-0-0-0-0-0-0|-0-0-0-0-0-0|-0-0-0-0-0-0--0|
|--*13|-0-0-0-0-0-0-|-0-0-0-0-0-0|-0-0-0-0-0-0-0|
|------0-0-0-0-0-0-|15-0-0-0-0-0|-0-0-0-0-0-15-0|
       PM PM PM PM    PM PM PM PM  PM PM PM
   *note 13th fret is palm muted*


(1:06)
|-----------------------------------------------------------|
|-----------------------------------------------------------|
|-----------------------------------------------------------|
|-----------------------------------------------------------|
|55555----66666----88888888886---55555---66666-8888888888866| 1x
|-----------------------------------------------------------|


Chorus? (1:13)(not exactly sure sorry but im pretty sure that this is it)
|----------------------------|
|----------------------------|
|----------------------------|
|----------------------------|
|8888888-777777-55555-3333333| 2xs
|----------------------------|
then
|----------------------------|
|----------------------------|
|----------------------------|
|8888888-777777-55555-3333333| 2xs
|----------------------------|
|----------------------------|


(1:42)
|----|--------|
|----|--------|
|6666|--------|
|----|555--777|
|----|--------|

(1:46)
|---------------|-----------------------|
|---------------|-----------------------|
|---------------|-----------------------|
|0-0-0-0-0-0-0-0|--00000-0-0-0-0-0-0-0-0|
|0-0-0-0-0-0-0-0|--00000-0-0-0-0-0-0-0-0|
|0-0-0-0-0-0-0-0|--00000-0-0-0-0-0-0-0-0|  9xs
 PM PM PM PM PM    PM PM PM PM PM PM PM


(2:16)
|------------------------|------------|-----------------|--------------|
|------------------------|------------|-----------------|--------------|
|------------------------|------------|-----------------|--------------|
|--------------7-8-11-8-7|------------|------7-8-11-8-7-|--------------|
|------------5-----------|---5-7~~8-8-|----5------------|---5-7~8-8----| 2xs
|0-0-0-0-0-0-------------|000---------|000--------------|000-----------|
 PM PM PM PM              PM                                PM


Play this part 3 times but play the first part then the second part so it's 101010-7777 
play the 4-5-7 part 3 times.
(2:43)
|------------------------------------------------|
|------------------------------------------------|
|------------------------------------------------|
|------------------------------------------------|
|------------------------------------------------|
|---5-8-7-7-8-10-8-8-10-12-8-1010101010-77777777-|
|0-----------------------------------------------|  3xs
                                 T          T


|-------------------------------------------|
|-------------------------------------------|
|-------------------------------------------|
|-------------------------------------------|
|---5-8-7-7-8-10-8-4-5-7-10101010-1212121212|
|0------------------------------------------|
                           T          T

(3:14)
|-----------------------------------------------------------|
|-----------------------------------------------------------|
|-----------------------------------------------------------|
|-----------------------------------------------------------|
|------8-5-7|------10-7-8|------12-10-12-1010101010-77777777|
|0-0-0------|0-0-0-------|0-0-0-----------------------------|play this once
PM PM        PM PM        PM PM              T         T


|------------------------------------------------------|
|------------------------------------------------------|
|------------------------------------------------------|
|------------------------------------------------------|
|------8-5-7|------10-7-8|------4-5-10101010-1212121212|
|0-0-0------|0-0-0-------|0-0-0------------------------|then this,do it twice
 PM PM       PM PM        PM PM

(3:33)
|-------|-------|-------|-------|------|-------|-------|-------|--|
|-------|-------|-------|-------|------|-------|-------|-------|--|
|-10----|12-----|14-----|15-----|10----|12-----|14-----|18-----|19|
|-x-----|x------|x------|x------|x-----|x------|x------|x------|x-|
|-8*5xs*|10*5xs*|12*5xs*|13*5xs*|8*5xs*|10*5xs*|12*5xs*|16*5xs*|17|
|-------|-------|-------|-------|------|-------|-------|-------|--|
Play this twice, but on the second time play this at the end----^^

(3:56)
|---------------|
|---------------|
|---------------|
|0000-000-000000|
|0000-000-000000|
|0000-000-000000| 4xs


(4:27)
|---------------------------------------------------------------------|
|---------------------------------------------------------------------|
|---------------------------------------------------------------------|
|---------------------------------------------------------------------|
|1212121212-1313131313-12-h1313131313-12-h13131313131313-101010-121212|6xs
|---------------------------------------------------------------------|
 T  T    T  T    T   T     T     T         T     T   T    T   T   T T


Outro: (5:08)
|-----------------|
|-----------------|
|-----------------|
|-----------------|
|-15-15-13-13-12~~|
|-----------------|


That's it, if you have any questions e-mail me, my e-mail is on the top of the page. 
for looking and hope you had fun with this song.

www.antagony.com
Добавлено: 28.02.2012
Другие материалы по этой песне:
  • Аккорды и текст

Страница создана 28.02.2012
http://primanota.ru/antagony/awakening-chords.htm
Привет, Гость.
Предлагаем пройти революционный курс по гитаре.
Подарок от PrimaNota.Ru, забирай!