PrimaNota.ru - самый крупный в мире бесплатный архив песенных текстов, аккордов, табулатур и нот


Antagony - Abrelos Ojo - таба, видео

Регистрация Запомнить меня
Войти через:  Facebook Google Twitter Vk Yandex Mail.ru

Antagony - Abrelos Ojo - таба, видео

Печатать
Просмотров: 125
-------------------------------------------------------------------------------
                                   Abrelos Ojo - Antagony
-------------------------------------------------------------------------------
Tabbed by: Alain Cloutier
Email: six_inch_of_bl0od@hotmail.com

Tuning: B,F#,B,E,G#,C#


Duration Legend
---------------
W - whole
H - half
Q - quarter
E - 8th
S - 16th
T - 32nd
X - 64th
. - note dotted


Tablature Legend
----------------

PM - palm mute
NH - natural harmonic
AH - artificial harmonic
h - hammer on
p - pull off
b - bend
br - bendRelease
S - shift slide
/ -  slide into from below or out of upwards
\ -  slide into from above or out of downwards
~ - vibrato
TP - tremolo picking
^ - brush up
v - brush down


Guitar 1

        PM PM   PM PM       PM PM   PM PM      
      S S  S  S S  S  S S S S  S  S S  S  S S  
C#||------------------------------------------|
G#||------------------------------------------|
E ||------------------------------------------|
B ||------------------------------------------|
F#||--5-------5-------8-5-7-------7-------5-7-|
B ||----0--0----0--0--------0--0----0--0------|


    PM PM   PM PM         PM PM         
  S S  S  S S  S   S S  S S  S  S Q     
---------------------------------------|
---------------------------------------|
---------------------------------------|
---------------------------------------|
--8-------8-------12-8-10-------7------|
----0--0----0--0----------0--0---------|


    PM PM   PM PM       PM PM   PM PM      
  S S  S  S S  S  S S S S  S  S S  S  S S  
------------------------------------------|
------------------------------------------|
------------------------------------------|
------------------------------------------|
--5-------5-------8-5-7-------7-------5-7-|
----0--0----0--0--------0--0----0--0------|


    PM PM   PM PM         PM PM   PM PM   PM  
  S S  S  S S  S   S S  S S  S  S S  S  S S   
---------------------------------------------|
---------------------------------------------|
---------------------------------------------|
---------------------------------------------|
--8-------8-------12-8-10-------7-------4----|
----0--0----0--0----------0--0----0--0----0--|


    PM PM   PM PM       PM PM   PM PM      
  S S  S  S S  S  S S S S  S  S S  S  S S  
------------------------------------------|
------------------------------------------|
------------------------------------------|
------------------------------------------|
--5-------5-------8-5-7-------7-------5-7-|
----0--0----0--0--------0--0----0--0------|


    PM PM   PM PM         PM PM   PM PM   PM  
  S S  S  S S  S   S S  S S  S  S S  S  S S   
---------------------------------------------|
---------------------------------------------|
---------------------------------------------|
---------------------------------------------|
--8-------8-------12-8-10-------7-------4----|
----0--0----0--0----------0--0----0--0----0--|


    PM PM   PM PM       PM PM   PM PM      
  S S  S  S S  S  S S S S  S  S S  S  S S  
------------------------------------------|
------------------------------------------|
------------------------------------------|
------------------------------------------|
--5-------5-------8-5-7-------7-------5-7-|
----0--0----0--0--------0--0----0--0------|


    PM PM   PM PM         PM PM   PM PM   PM  
  S S  S  S S  S   S S  S S  S  S S  S  S S   
---------------------------------------------|
---------------------------------------------|
---------------------------------------------|
---------------------------------------------|
--8-------8-------12-8-10-------7-------4----|
----0--0----0--0----------0--0----0--0----0--|


    PM PM   PM PM       PM PM   PM PM      
  S S  S  S S  S  S S S S  S  S S  S  S S  
------------------------------------------|
------------------------------------------|
------------------------------------------|
------------------------------------------|
--5-------5-------8-5-7-------7-------5-7-|
----0--0----0--0--------0--0----0--0------|


    PM PM   PM PM         PM PM   PM PM   PM  
  S S  S  S S  S   S S  S S  S  S S  S  S S   
---------------------------------------------|
---------------------------------------------|
---------------------------------------------|
---------------------------------------------|
--8-------8-------12-8-10-------7-------4----|
----0--0----0--0----------0--0----0--0----0--|


  T T T T T T T T T T T T T T T T T T T T T T T T T T T T T T T T  
------------------------------------------------------------------|
------------------------------------------------------------------|
------------------------------------------------------------------|
--3-3-3-3-3-3-3-3-3-3-3-3-6-6-3-3-5-5-5-5-5-5-5-5-5-5-5-5-3-3-5-5-|
------------------------------------------------------------------|
------------------------------------------------------------------|


  T T T T T T T T T T T T  T  T T T T T T T T T T T T T T T T T T T  
--------------------------------------------------------------------|
--------------------------------------------------------------------|
--------------------------------------------------------------------|
--6-6-6-6-6-6-6-6-6-6-6-6-10-10-6-6-8-8-8-8-8-8-5-5-5-5-5-5-2-2-2-2-|
--------------------------------------------------------------------|
--------------------------------------------------------------------|


  T T T T T T T T T T T T T T T T T T T T T T T T T T T T T T T T  
------------------------------------------------------------------|
------------------------------------------------------------------|
------------------------------------------------------------------|
--3-3-3-3-3-3-3-3-3-3-3-3-6-6-3-3-5-5-5-5-5-5-5-5-5-5-5-5-3-3-5-5-|
------------------------------------------------------------------|
------------------------------------------------------------------|


  T T T T T T T T T T T T  T  T T T T T T T T T T T T T T T T T T T  
--------------------------------------------------------------------|
--------------------------------------------------------------------|
--------------------------------------------------------------------|
--6-6-6-6-6-6-6-6-6-6-6-6-10-10-6-6-8-8-8-8-8-8-5-5-5-5-5-5-2-2-2-2-|
--------------------------------------------------------------------|
--------------------------------------------------------------------|


  T T T T T T T T T T T T T T T T T T T T T T T T T T T T T T T T  
------------------------------------------------------------------|
------------------------------------------------------------------|
------------------------------------------------------------------|
------------------------------------------------------------------|
--5-5-5-5-5-5-5-5-5-5-5-5-8-8-5-5-7-7-7-7-7-7-7-7-7-7-7-7-5-5-7-7-|
------------------------------------------------------------------|


  T T T T T T T T T T T T  T  T T T  T  T  T  T  T  T T T T T T T T T T T  
--------------------------------------------------------------------------|
--------------------------------------------------------------------------|
--------------------------------------------------------------------------|
--------------------------------------------------------------------------|
--8-8-8-8-8-8-8-8-8-8-8-8-12-12-8-8-10-10-10-10-10-10-7-7-7-7-7-7-4-4-4-4-|
--------------------------------------------------------------------------|


  T T T T T T T T T T T T T T T T T T T T T T T T T T T T T T T T  
------------------------------------------------------------------|
------------------------------------------------------------------|
------------------------------------------------------------------|
------------------------------------------------------------------|
--5-5-5-5-5-5-5-5-5-5-5-5-8-8-5-5-7-7-7-7-7-7-7-7-7-7-7-7-5-5-7-7-|
------------------------------------------------------------------|


  T T T T T T T T T T T T  T  T T T  T  T  T  T  T  T T T T T T T T T T T  
--------------------------------------------------------------------------|
--------------------------------------------------------------------------|
--------------------------------------------------------------------------|
--------------------------------------------------------------------------|
--8-8-8-8-8-8-8-8-8-8-8-8-12-12-8-8-10-10-10-10-10-10-7-7-7-7-7-7-4-4-4-4-|
--------------------------------------------------------------------------|


  PM PM   PM   PM   PM   PM   PM            
  S  S  S S  S S  S S  S S  S S  S S  S  S  
-------------------------------------------|
-------------------------------------------|
-------------------------------------------|
-----------------------------------3p-2h-3-|
--------5----5----4----1----1----1---------|
--0--0----0----0----0----0----0------------|


  PM PM   PM   PM   PM   PM   PM            
  S  S  S S  S S  S S  S S  S S  S S  S  S  
-------------------------------------------|
-------------------------------------------|
-------------------------------------------|
-----------------------------------3p-2h-3-|
--------5----5----4----1----1----1---------|
--0--0----0----0----0----0----0------------|


  PM PM   PM   PM   PM   PM   PM            
  S  S  S S  S S  S S  S S  S S  S S  S  S  
-------------------------------------------|
-------------------------------------------|
-------------------------------------------|
-----------------------------------3p-2h-3-|
--------5----5----4----1----1----1---------|
--0--0----0----0----0----0----0------------|


  PM PM   PM   PM   PM   PM   PM            
  S  S  S S  S S  S S  S S  S S  S S  S  S  
-------------------------------------------|
-------------------------------------------|
-------------------------------------------|
-----------------------------------3p-2h-3-|
--------5----5----4----1----1----1---------|
--0--0----0----0----0----0----0------------|


  PM PM   PM   PM   PM   PM   PM   PM       
  S  S  S S  S S  S S  S S  S S  S S  S  S  
-------------------------------------------|
-------------------------------------------|
-------------------------------------------|
--------7----7----8----8----5----5----5h-7-|
-------------------------------------------|
--0--0----0----0----0----0----0----0-------|


  PM PM   PM   PM   PM   PM   PM            
  S  S  S S  S S  S S  S S  S S  S S  S  S  
-------------------------------------------|
-------------------------------------------|
-------------------------------------------|
-----------------------------------3p-2h-3-|
--------5----5----4----1----1----1---------|
--0--0----0----0----0----0----0------------|


  PM PM    PM    PM    PM    PM    PM    PM         
  S  S   S S   S S   S S   S S   S S   S S   S   S  
---------------------------------------------------|
---------------------------------------------------|
---------------------------------------------------|
--------12----12----13----13----10----10----10h-12-|
---------------------------------------------------|
--0--0-----0-----0-----0-----0-----0-----0---------|


  PM PM    PM    PM    PM    PM    PM    PM         
  S  S   S S   S S   S S   S S   S S   S S   S   S  
---------------------------------------------------|
---------------------------------------------------|
---------------------------------------------------|
--------12----12----13----13----10----10----10h-12-|
---------------------------------------------------|
--0--0-----0-----0-----0-----0-----0-----0---------|


  PM PM   PM   PM   PM   PM   PM            
  S  S  S S  S S  S S  S S  S S  S S  S  S  
-------------------------------------------|
-------------------------------------------|
-------------------------------------------|
-----------------------------------3p-2h-3-|
--------5----5----4----1----1----1---------|
--0--0----0----0----0----0----0------------|


  PM PM   PM   PM   PM   PM   PM           
  S  S  S S  S S  S S  S S  S S  H         
------------------------------------------|
------------------------------------------|
------------------------------------------|
------------------------------------------|
--------5----5----4----1----1----7--------|
--0--0----0----0----0----0----0-----------|


    PM PM   PM PM          PM PM    PM PM    PM  
  S S  S  S S  S  S  S   S S  S   S S  S   S S   
------------------------------------------------|
------------------------------------------------|
------------------------------------------------|
------------------------------------------------|
--7-------7-------7s-8s-10-------10-------10----|
----0--0----0--0-----------0--0-----0--0-----0--|


     PM PM    PM PM           PM PM    PM PM   PM  
   S S  S   S S  S   S   S  S S  S   S S  S  S S   
--------------------------------------------------|
--------------------------------------------------|
--------------------------------------------------|
---------------------------12-------11-------8----|
--10-------10-------10s-12------------------------|
-----0--0-----0--0------------0--0-----0--0----0--|


    PM PM   PM PM          PM PM    PM PM    PM  
  S S  S  S S  S  S  S   S S  S   S S  S   S S   
------------------------------------------------|
------------------------------------------------|
------------------------------------------------|
------------------------------------------------|
--7-------7-------7s-8s-10-------10-------10----|
----0--0----0--0-----------0--0-----0--0-----0--|


     PM PM    PM PM           PM PM    PM PM   PM  
   S S  S   S S  S   S   S  S S  S   S S  S  S S   
--------------------------------------------------|
--------------------------------------------------|
--------------------------------------------------|
---------------------------12-------11-------8----|
--10-------10-------10s-12------------------------|
-----0--0-----0--0------------0--0-----0--0----0--|


    PM PM   PM PM          PM PM    PM PM    PM  
  S S  S  S S  S  S  S   S S  S   S S  S   S S   
------------------------------------------------|
------------------------------------------------|
------------------------------------------------|
------------------------------------------------|
--7-------7-------7s-8s-10-------10-------10----|
----0--0----0--0-----------0--0-----0--0-----0--|


     PM PM    PM PM           PM PM    PM PM   PM  
   S S  S   S S  S   S   S  S S  S   S S  S  S S   
--------------------------------------------------|
--------------------------------------------------|
--------------------------------------------------|
---------------------------12-------11-------8----|
--10-------10-------10s-12------------------------|
-----0--0-----0--0------------0--0-----0--0----0--|


    PM PM   PM PM          PM PM    PM PM    PM  
  S S  S  S S  S  S  S   S S  S   S S  S   S S   
------------------------------------------------|
------------------------------------------------|
------------------------------------------------|
------------------------------------------------|
--7-------7-------7s-8s-10-------10-------10----|
----0--0----0--0-----------0--0-----0--0-----0--|


     PM PM    PM PM    PM                                    
   S S  S   S S  S   S S   E  Q.        Q.     E  Q    Q     
-------------------------------------|----------------------|
-------------------------------------|----------------------|
-------------------------------------|----------------------|
-------------------------------------|--7------6--3----3----|
--10-------10-------10----10---------|--5------4--1----1----|
-----0--0-----0--0-----0-------------|----------------------|


  Q.     E  Q    Q       Q.     E  Q    Q       Q.     E  Q    Q     
----------------------|----------------------|----------------------|
----------------------|----------------------|----------------------|
----------------------|----------------------|----------------------|
----------------------|----------------------|----------------------|
--3------3--2----2----|--0------2--3----3----|--7------5--7----3----|
--3------3--2----2----|--0------2--3----3----|--7------5--7----3----|


  Q.     E  Q    Q       Q.     E  Q    Q       Q.     E  Q    Q     
----------------------|----------------------|----------------------|
----------------------|----------------------|----------------------|
----------------------|----------------------|----------------------|
--7------6--3----3----|----------------------|----------------------|
--5------4--1----1----|--3------3--2----2----|--0------2--3----3----|
----------------------|--3------3--2----2----|--0------2--3----3----|


  Q.     E  Q    Q     
----------------------|
----------------------|
----------------------|
----------------------|
--7------5--7----3----|
--7------5--7----3----|


   T  T  T  T  T  T  T  T  T  T  T  T  T  T  T  T  T  T  T  T  T  T  T  T  T  T 
--------------------------------------------------------------------------------
--------------------------------------------------------------------------------
--------------------------------------------------------------------------------
--12-12-12-12-12-12-12-12-12-12-12-12-14-14-14-14-15-15-15-15-15-15-15-15-15-15-
--------------------------------------------------------------------------------
--------------------------------------------------------------------------------


   T  T  T  T  T  T  T  T  T  T  T  T  T  T  T  T  T  T  T  T  T  T  T  T  T  T 
--------------------------------------------------------------------------------
--------------------------------------------------------------------------------
--14-14-14-14-14-14-14-14-14-14-14-14-12-12-12-12-14-14-14-14-14-14-14-14-12-12-
--------------------------------------------------------------------------------
--------------------------------------------------------------------------------
--------------------------------------------------------------------------------


   T  T  T  T  T  T  T  T  T  T  T  T  T  T  T  T  T  T  T  T  T  T  T  T  T  T 
--------------------------------------------------------------------------------
--------------------------------------------------------------------------------
--------------------------------------------------------------------------------
--15-15-15-15-15-15-15-15-15-15-15-15-14-14-14-14-14-12-12-12-12-12-12-12-12-12-
--------------------------------------------------------------------------------
--------------------------------------------------------------------------------


  T T T T T T T T T T T T T T T T  T  T  T  T  T  T  T  T  T  T  T  T  T  T  T  
--------------------------------------------------------------------------------
--------------------------------------------------------------------------------
--------------------------------------------------------------------------------
--7-7-7-7-7-7-7-7-7-7-7-7-5-5-5-5-11-11-11-11-11-11-11-11-14-14-14-14-14-14-14-1
--------------------------------------------------------------------------------
--------------------------------------------------------------------------------


   W                   W                   S E.  H.            
--------------------|-------------------|---------------------|
--------------------|-------------------|---------------------|
--------------------|-------------------|---------------------|
--12----------------|--L----------------|---------------------|
--------------------|-------------------|--0------------------|
--------------------|-------------------|--0------------------|


  E  E  H.              S S S S S S S S S S S S S  S  S  S  
---------------------|-------------------------------------|
---------------------|-------------------------------------|
---------------------|-------------------------------------|
---------------------|-------------------------------------|
--0------------------|------5---5---5---5---5---8p-7p-5p-4-|
--0------------------|--0-0---0---0---0---0---0------------|


  S S S S S S S S S S S S S  S  E     S S S S S S S S S S S S S  S  S  S  
-----------------------------------|-------------------------------------|
-----------------------------------|-------------------------------------|
-----------------------------------|-------------------------------------|
-----------------------------------|-------------------------------------|
------1---1---1---4---4---7h-8p-7--|------5---5---5---5---5---8p-7p-5p-4-|
--0-0---0---0---0---0---0----------|--0-0---0---0---0---0---0------------|


  S S S S S S S S S S S S S  S  E     S S S S S S S S S S S S  S   S   E   
-----------------------------------|--------------------------------------|
-----------------------------------|--------------------------------------|
-----------------------------------|--------------------------------------|
-----------------------------------|------3---3---3---3---3---10h-12p-10--|
------1---1---1---4---4---7h-8p-7--|--------------------------------------|
--0-0---0---0---0---0---0----------|--0-0---0---0---0---0---0-------------|


  S S  S S  S S  S S  S S  S S S   S  E   
-----------------------------------------|
-----------------------------------------|
-----------------------------------------|
-----------------------------------------|
------11---11---11---11---11---8h-10p-8--|
--0-0----0----0----0----0----0-----------|


  S S S S S S S S S S S S  S   S   E   
--------------------------------------|
--------------------------------------|
--------------------------------------|
------3---3---3---3---3---10h-12p-10--|
--------------------------------------|
--0-0---0---0---0---0---0-------------|


  S S  S S  S S  S S  S S  S S S   S   E      E  E  H.             
------------------------------------------|----------------------||
------------------------------------------|----------------------||
------------------------------------------|----------------------||
------------------------------------------|----------------------||
------11---11---11---11---11---8h-10h-11--|--12------------------||
--0-0----0----0----0----0----0--------11--|--12------------------||

END
Добавлено: 31.05.2012
Другие материалы по этой песне:

Страница создана 20.04.2012
http://primanota.ru/antagony/abrelos-ojo-chords.htm
Привет, Гость.
Предлагаем пройти революционный курс по гитаре.
Подарок от PrimaNota.Ru, забирай!