PrimaNota.ru - самый крупный в мире бесплатный архив песенных текстов, аккордов, табулатур и нот


Anouk - The Dark - текст песни, таба, бас-таба, видео

Регистрация Запомнить меня
Войти через:  Facebook Google Twitter Vk Yandex Mail.ru

Anouk - The Dark - текст песни, таба, бас-таба, видео

Печатать
Просмотров: 279
Anouk - The Dark

INTRO:
   Em              Dsus2   Csus2   3x   riff at 2nd time
e|---------------------------------||   e|-----------|
b|---------------------------------||   b|-----------|
G|*----------------7-7-7-7-5-5-5-5*||   G|-----7-----|
D|*2-2-2-2-2-2-2-2-7-7-7-7-5-5-5-5*||   D|-----7-----|
A|-2-2-2-2-2-2-2-2-5-5-5-5-3-3-3-3-||   A|-7h9---7h9-|
E|-0-0-0-0-0-0-0-0-----------------||   E|-----------|
                       Verse: Em
e|-------------------------||----
b|-------------------------||----
G|---------7-7-7-7--5--5---||----
D|-2-2-2-2-7-7-7-7--5--5---||-2--
A|-2-2-2-2-5-5-5-5--3--3---||-2--
E|-0-0-0-0-----------------||-0--

VERSE:
I'm walking in the park 
And I'm talking to the dark 

	Guitar 2(wahwah): A|--5---55-|

But there ain't nobody listening, no

	Guitar 1:         Guitar 2:
	e|-----12~~~~~|   D|-6b7r5----| 
	b|-----15b17~~|   A|------7\--|

My heart has turned to stone 
When I found myself alone 

	Guitar 2: A|--5--5555-|

Now all I do is whisper, to the dark 

CHORUS:
2x Em   Dsus2  Csus2


VERSE:
There's only so much you can take
You've gotta to give yourself a break
But I don't think you're listening,
no no no no
						
	Guitar 1:	
	e|---------------------|					
	b|---------------------|
	G|*------------7------*|
	D|*-2-7------9-7-2-7--*|
	A|--2-7------9-5-2-7---|
	E|--0-5------7---0-5---|

Guitar 2: D|-7b8r7-|

If you're gonna take it all so hard
You gonna tear yourself apart
I can understand you miss him, in the dark,
Oh oh oh oooh

	Guitar 1:
	e|---------------------|
	b|---------------------|
	G|*------------7------*|
	D|*-2-7------5-7-2-7--*|
	A|--2-7------5-5-2-7---|
	E|--0-5------3---0-5---|

REPEAT CHORUS

BRIDGE (palm muted):
     Am7    Dadd4add9/A
e||--0-...--0-...---||
b||--1-...--3-...---||
G||*-0-...--0-...--*||
D||*-2-...--4-...--*||
A||--0-...--0-...---||
E||-----------------||

If love is no longer being served, you've got to leave the table 
Mister Aznavour told me, merci beaucoup.
Though I miss him, got to let go. 
Though I miss him, got to let go 
Let it go 

VERSE (rap):
	Guitar 1: b|:----14b15-------:|
	Guitar 2: all strings|:-xxx..:|

It's about that time to leave it all behind you 
You don't want to but life is passing by you 
The hard knocks, got you twisted like dreadlocks 
Catalogue your dark and set some new marks 
I understand your body's filled with hesitation 
Trust me it's gonna be a whole new situation 
Turn this page I guess you know what to do 

	Guitars: E5\

Rise up like phoenix I'm bringing out the beauty in you, what?

CHORUS:
4x Em    Dsus2  Csus2

	Guitars: A|-h7-h7-5---
                E|---------7-
OUTRO:  
4x Em   Dsus2  Csus2

	Guitar solo:  (4x Em     Dsus2  Csus2 )
	G|-9~~~~~~~~~~----| etc.
Добавлено: 26.06.2012
Другие материалы по этой песне:

Страница создана 27.03.2012
http://primanota.ru/anouk/the-dark-chords.htm
Привет, Гость.
Предлагаем пройти революционный курс по гитаре.
Подарок от PrimaNota.Ru, забирай!