PrimaNota.ru - самый крупный в мире бесплатный архив песенных текстов, аккордов, табулатур и нот


Anouk - Stop Thinking - аккорды и текст, видео

Регистрация Запомнить меня
Войти через:  Facebook Google Twitter Vk Yandex Mail.ru

Anouk - Stop Thinking - аккорды и текст, видео

Печатать
Просмотров: 195
Уроки эстрадного вокала в Санкт-Петербурге
Stop Thinking
Anouk
Bandname : Anouk
Songname : Stop Thinking (acoustic)
Album	 : "Anouk - Close up"
Tuning   : Half Step Down
Tabbed by: Mat (mat2k@gmx.net)
-------------------------------------------------------------------------------
Chords used: Em7	0-2-2-0-3-3
	     Cadd9	x-3-2-0-3-3 
	     G  	3-2-0-0-3-3
	     D  	x-0-0-2-3-2
-------------------------------------------------------------------------------

I just wrote down the idea of the Verse. Actually, it's just Em7 & Cadd9 and
about three little licks, as you can see in the tabbed intro. For the rhytm 
of the chorus, just listen to the song. 
It's a great song! Check out the other songs by Anouk, especially the acoustic 
songs are awesome!

-------------------------------------------------------------------------------
		

[Intro + Verse + Outro] (palm muted)
 Em7   Cadd9	   Em7   Cadd9           Em7   Cadd9      Em7   Cadd9
|-----------|-----|----------|----------|----------|-----|----------|---------|
|-----------|-----|----------|----------|----------|-----|----------|---------|
|--------0-0|-----|-------0-0|-0^2^0----|------0-0-|-----|-------0-0|---------|
|---2-0-----|-0^2-|---2-0----|------0^2-|---2-0----|-0^2-|---2-0----|---------|
|--2---3----|-----|--2---3---|----------|--2---3---|-----|--2---3---|-3^2^0---|
|-0---------|-----|-0--------|----------|-0--------|-----|-0--------|------^3-|


[Verse I]
Lately I've been feeling down  
I don't get around much anymore
So I just spend my time alone  
Waiting for the phone to ring

And I ..... (D Cadd9) keep thinking of you	            


[Verse II]
I miss the language that we speak
When we don't even talk				
And everytime I see you smile
You make it all worthwhile
			   
And I ..... (D Cadd9) keep thinking of you


[Chorus]
And I ..... (D Cadd9)
						  G  Cadd9  D  Cadd9
I never loved someone like this before		|-3----3----3----3-|
Keep staring at your picture while I try to	|-3----3----2----3-|
Work my way around you				|-0----0----3----0-|
But nothing's any good				|-0----2----0----2-|
'Cause I keep thinking of you 			|-2----3----0----3-|
						|-3----x---------x-|

[Verse III] 
You never told me I would feel
Lonely without you
You're not supposed to make me cry 			      
You said: don't worry I am yours
And in a while you were gonna call me	
Well it's been six hours now

And I ..... (D Cadd9) keep thinking of you


[Chorus]
And I ..... (D Cadd9)
						  G  Cadd9  D  Cadd9
I never loved someone like this before		|-3----3----3----3-|
Keep staring at your picture while I try to	|-3----3----2----3-|
Work my way around you				|-0----0----3----0-|
But nothing's any good				|-0----2----0----2-|
'Cause I keep thinking of you 			|-2----3----0----3-|
						|-3----x---------x-|

Em7  Cadd9  Em7  Cadd9
G  Cadd9  D  Cadd9 ( 3x )
Em7  Cadd9  Em7  Cadd9


[Chorus]					  G  Cadd9  D  Cadd9
I never loved someone like this before		|-3----3----3----3-|
Keep staring at your picture while I try to	|-3----3----2----3-|
Work my way around you				|-0----0----3----0-|
But nothing's any good				|-0----2----0----2-|
'Cause I keep thinking of you 			|-2----3----0----3-|
						|-3----x---------x-|

[Outro]
I gotta stop thinking of you    
I gotta stop thinking of you yeah yeah yeah        
I gotta stop
Добавлено: 28.05.2012
Другие материалы по этой песне:
  • Аккорды и текст

Страница создана 28.05.2012
http://primanota.ru/anouk/stop-thinking-chords.htm
Привет, Гость.
Предлагаем пройти революционный курс по гитаре.
Подарок от PrimaNota.Ru, забирай!