PrimaNota.ru - самый крупный в мире бесплатный архив песенных текстов, аккордов, табулатур и нот


Anouk - Loving Whiskey - аккорды и текст, видео

Регистрация Запомнить меня
Войти через:  Facebook Google Twitter Vk Yandex Mail.ru

Anouk - Loving Whiskey - аккорды и текст, видео

Печатать
Просмотров: 95
Loving Whiskey
Anouk
                        LOVIN' WHISKEY
                     As recorded by Anouk
 
Words and Music by Rory Block
Arranged by Rory Block

Transcribed by Rick Goede

           D          Em         Em7/A                 Bm
      0 0 0 2 3 2          2 2 2 0 0 0          x 0 2 0 3 0          x 2 4 4 3 2

          G/D         A/D          G         Em/F#
      x 5 5 4 3 x          0 4 2 2 2 5          5 2 0 0 0 x          4 2 2 0 0 x

          Dm
      0 0 0 2 3 1

Guitar tuned in dropped D (D A D G B E)

  D                  Bm            Em            Em7/A
  Gtr I
|------------2----|-----2-----------------|-------------------------|
|---------3-(3)---|-----3----------3------|-----0---------3p0---(0)-|
|-------2---(2)---|--------0-------4------|-----0-------------0-----|
|-----0-----(0)---|-------------4-(4)--0--|--------2----2--------2--|
|---0-------(0)---|---0---(0)-2-------(2)-|---2---(2)-0---------(0)-|
|-0---------(0)---|-0-----(0)-------------|-2-----(2)---------------|


  D         Bm            Em        Em7/A       G/D     A/D
|-----2----------2------|-----0---------------|-----------------|-5-----(5)---|
|-----3----------3------|-----0---------3-(3)-|-------3-------2-|-------------|
|--------0--------------|------------------0--|-----4-------2---|-------------|
|-------------4-(4)--0--|--------2----2---(2)-|---5-------2-----|-------------|
|---0---(0)-2-------(2)-|---2---(2)-0-----(0)-|-5-------4-------|-----------0-|
|-0-----(0)-------------|-2-----(2)-----------|-----------------|-------------|


  Bm        G             D
|---------------------||------------0h2-------|
|-----3---------0-----||o-----3---------3-----|
|-----4---------0-----||------2-----------2---|
|---4----0---------0--||---------0------------|
|-2-----(2)---2---(2)-||o---0---(0)---------0-|
|-----------5-----(5)-||--0-----(0)-----------|


  Bm        G             D         Bm
|----------------------||-------------------|
|-----3---------0-----o||---3----3------3---|
|-----4---------0------||---2----2------4---|
|---4----0---------0---||-------------4-----|
|-2-----(2)---2---(2)-o||-----0-(0)-2-----0-|
|-----------5-----(5)--||-0-----(0)---------|


  Em        Em/F#       Em7/A             Dm         D
|---------------------|---------0-------|---------0h1p0-----|-2----||
|-----0---------0-----|-------3---3-----|---------------3---|-3----||
|-----0---------0-----|-----0-------0---|-------2---------2-|-2----||
|--------2---------2--|---2-----------2-|-----0-------------|-0----||
|---2---(2)---2---(2)-|-0---------------|---0---------------|-0----||
|-2-----(2)-4-----(4)-|-----------------|-0-----------------|------||


|-----2-----------------|---------------------|
|-----3----------3------|-----0-------3-3-----|
|--------0-------4------|-----0-------2-2-----|
|-------------4-(4)--0--|--------2--------0---|
|---0---(0)-2-------(2)-|---2---(2)-0-------0-|
|-0-----(0)-------------|-2-----(2)-----------|


|-----2----------2------|-----0---------------|
|-----3----------3------|-----0---------3-(3)-|
|--------0--------------|------------------0--|
|-------------4-(4)--0--|--------2----2---(2)-|
|---0---(0)-2-------(2)-|---2---(2)-0-----(0)-|
|-0-----(0)-------------|-2-----(2)-----------|


|-----------------|-5----(5)-----|---------------------||------------0h2-------|
|-------3-------2-|--------------|-----3---------0-----||o-----3---------3-----|
|-----4-------2---|--------------|-----4---------0-----||------2-----------2---|
|---5-------2-----|--------------|---4----0---------0--||---------0------------|
|-5-------4-------|-----------0--|-2-----(2)---2---(2)-||o---0---(0)---------0-|
|-----------------|--------------|-----------5-----(5)-||--0-----(0)-----------|


|----------------------||-------------------|
|-----3---------0-----o||---3----3------3---|
|-----4---------0------||---2----2------4---|
|---4----0---------0---||-------------4-----|
|-2-----(2)---2---(2)-o||-----0-(0)-2-----0-|
|-----------5-----(5)--||-0-----(0)---------|


|---------------------|---------0--------|
|-----0---------0-----|-------3---3------|
|-----0---------0-----|-----0-------0----|
|--------2---------2--|---2-----------2--|
|---2---(2)---2---(2)-|-0----------------|
|-2-----(2)-4-----(4)-|------------------|


|---------0h1p0-----|-2--------||-0h2-----------------|-------------------|
|---------------3---|-3--------||-3---3-----0-----3---|-----0-------3-----|
|-------2---------2-|-2--------||-------2---0-----4---|-----0---------0---|
|-----0-------------|-0--------||-0-------------4-----|--------2--------2-|
|---0---------------|-0--------||---------0---2-----0-|---2---(2)-0-------|
|-0-----------------|----------||---------------------|-2-----(2)---------|


|-----2----------2------|---------------------|-----------------|-5----(5)----|
|-----3----------3------|-----0---------3-(3)-|-------3-------2-|-------------|
|--------0--------------|-----0------------0--|-----4-------2---|-------------|
|-------------4-(4)--0--|--------2----2---(2)-|---5-------2-----|-------------|
|---0---(0)-2-------(2)-|---2---(2)-0-----(0)-|-5-------4-------|-----------0-|
|-0-----(0)-------------|-2-----(2)-----------|-----------------|-------------|


|---------------------||------------0h2-------|
|-----3---------0-----||o-----3---------3-----|
|-----4---------0-----||------2-----------2---|
|---4----0---------0--||---------0------------|
|-2-----(2)---2---(2)-||o---0---(0)---------0-|
|-----------5-----(5)-||--0-----(0)-----------|


|----------------------||-------------------|
|-----3---------0-----o||---3----3------3---|
|-----4---------0------||---2----2------4---|
|---4----0---------0---||-------------4-----|
|-2-----(2)---2---(2)-o||-----0-(0)-2-----0-|
|-----------5-----(5)--||-0-----(0)---------|


|---------------------|---------0-------|---------0h1p0-----|-2----||
|-----0---------0-----|-------3---3-----|---------------3---|-3----||
|-----0---------0-----|-----0-------0---|-------2---------2-|-2----||
|--------2---------2--|---2-----------2-|-----0-------------|-0----||
|---2---(2)---2---(2)-|-0---------------|---0---------------|-0----||
|-2-----(2)-4-----(4)-|-----------------|-0-----------------|------||


|-0h2-------------------|-----------------------|
|-3---3-----3-------3---|-----0-------3--3------|
|-------------2-----4---|-----0-------4--4------|
|-0-------0-------4-----|--------2------------0-|
|-------0-------2-----0-|---2---(2)-0---(0)-5---|
|-----------------------|-2-----(2)-------------|


|-0h2-------------------|----------------------|
|-3---3-----3-------3---|-----0---------3-(3)--|
|-------------2-----4---|-----0------------0---|
|-0-------0-------4-----|--------2----2---(2)--|
|-------0-------2-----0-|---2---(2)-0-----(0)--|
|-----------------------|-2-----(2)------------|


|-----------------|-5----(5)-----|---------------------||------------0h2-------|
|-------3-------2-|--------------|-----3---------0-----||o-----3---------3-----|
|-----4-------2---|--------------|-----4---------0-----||------2-----------2---|
|---5-------2-----|--------------|---4----0---------0--||---------0------------|
|-5-------4-------|-----------0--|-2-----(2)---2---(2)-||o---0---(0)---------0-|
|-----------------|--------------|-----------5-----(5)-||--0-----(0)-----------|


|----------------------||-------------------|
|-----3---------0-----o||---3----3------3---|
|-----4---------0------||---2----2------4---|
|---4----0---------0---||-------------4-----|
|-2-----(2)---2---(2)-o||-----0-(0)-2-----0-|
|-----------5-----(5)--||-0-----(0)---------|


|---------------------|---------0--------|
|-----0---------0-----|-------3---3------|
|-----0---------0-----|-----0-------0----|
|--------2---------2--|---2-----------2--|
|---2---(2)---2---(2)-|-0----------------|
|-2-----(2)-4-----(4)-|------------------|


|---------0h1p0-----|-------2-(2)----|
|---------------3---|-----3---(3)----|
|-------2---------2-|---2-----(2)----|
|-----0-------------|----------------|
|---0---------------|----------------|
|-0-----------------|-0-------(0)----|


 Generated using Power Tab Editor by Brad Larsen -  
Добавлено: 04.11.2013
Другие материалы по этой песне:
  • Аккорды и текст

Страница создана 04.11.2013
http://primanota.ru/anouk/loving-whiskey-chords.htm
Привет, Гость.
Предлагаем пройти революционный курс по гитаре.
Подарок от PrimaNota.Ru, забирай!