PrimaNota.ru - самый крупный в мире бесплатный архив песенных текстов, аккордов, табулатур и нот


Anouk - Its A Shame - текст песни, таба, видео

Регистрация Запомнить меня
Войти через:  Facebook Google Twitter Vk Yandex Mail.ru

Anouk - Its A Shame - текст песни, таба, видео

Печатать
Просмотров: 211
Авторы музыки: Bart van Veen, Anouk Teeuwe

-------------------------------------------------------------------------------
                             IT'S A SHAME - Anouk
-------------------------------------------------------------------------------
Tabbed by: Lezada
Email: mizen1@hotmail.com

Tuning: Standard E


Intro + 1st verse
Guitar 1

e|-0-0-2-2-2-2-0-0-0-0-2-2-2-2-0-0-|
B|-3-3-3-3-3-3-3-3-2-2-3-3-3-3-3-3-|
G|-2-2-2-2-0-0-0-0-4-4-4-4-0-0-0-0-| X7
D|---------------------------------|
A|---------------------------------|
E|---------------------------------| Then the last time:

e|-0-0-2-2-2-2-0-0-0-0-2-2-2-2-2-2-| 
B|-3-3-3-3-3-3-3-3-2-2-3-3-3-3-3-3-|
G|-2-2-2-2-0-0-0-0-4-4-4-4-0-0-0-0-|
D|---------------------------------|
A|---------------------------------|
E|---------------------------------|

Chorus

e|----------------------------------|
B|----------------------------------|
G|----7-77------------5-55----7-----| X2
D|-7--7-77-7--2----5--5-55-5--7---57|
A|-7--5-55-7--2----5--3-33-5--5-57--|
E|-5-------5--0----3-------3--------|

e|-------------------10-------------|
B|-----3--1-------------------------|
G|-----------2--0-------------------|
D|----------------0-----------------|
A|-/3-------------------------------|
E|----------------------------------|

2nd verse 
Guitar 1

e|-0-0-2-2-2-2-0-0-0-0-2-2-2-2-0-0-|
B|-3-3-3-3-3-3-3-3-2-2-3-3-3-3-3-3-|
G|-2-2-2-2-0-0-0-0-4-4-4-4-0-0-0-0-| 1st time alone, then 3 times together 
D|---------------------------------|  with Guitar 2
A|---------------------------------|
E|---------------------------------| 

Guitar 2

e|---------0-----------------0------------------------------------0-|
B|------3------3---3------3-----3---3---------2----------------3----|
G|----2----------2------0---------0--------4-----4---4------0-------| X3
D|-0-----------------2-------------------4---------4------0---------|
A|------------------------------------2-----------------------------|
E|-----------------------------------------------------3------------|

Chorus

e|----------------------------------|
B|----------------------------------|
G|----7-77------------5-55----7-----|
D|-7--7-77-7--2----5--5-55-5--7---57|
A|-7--5-55-7--2----5--3-33-5--5-57--|
E|-5-------5--0----3-------3--------|

e|----------------------------------|
B|----------------------------------|
G|----7-77------------5-55----------|
D|-7--7-77-7--2----5--5-55-5--------|
A|-7--5-55-7--2----5--3-33-5--xxxxxx|
E|-5-------5--0----3-------3--------|

e|----------------------------------|
B|----------------------------------|
G|----7-77------------5-55----7-----|  X2
D|-7--7-77-7--2----5--5-55-5--7--57-|
A|-7--5-55-7--2----5--3-33-5--557---|
E|-5-------5--0----3-------3--------|

e|-------------------10-------14b---|
B|-----3--1-------------------------|
G|----0------2--0-------------------|
D|---2------------0-----------------|
A|-/3-------------------------------|
E|----------------------------------|

Guitar 1

e|-0-0-2-2-2-2-0-0-0-0-2-2-2-2-0-0-|
B|-3-3-3-3-3-3-3-3-2-2-3-3-3-3-3-3-|
G|-2-2-2-2-0-0-0-0-4-4-4-4-0-0-0-0-| 1st time alone, then 7 times together 
D|---------------------------------|  with Guitar 2 till it fades out.
A|---------------------------------|
E|---------------------------------| 

Guitar 2


e|---------0-----------------0------------------------------2---------0---|
B|------3------3---3------3-----3---3---------2-----------3---3-----3---0-|
G|----2----------2------0---------0--------4-----4---4-----------0--------| X7 till it fades out
D|-0-----------------2-------------------4---------4----------------------|
A|------------------------------------2-----------------------------------|
E|-----------------------------------------------------3------------------|


************************************

| /   slide up
| \   slide down
| h   hammer-on
| p   pull-off
| ~   vibrato
| +   harmonic
| x   Mute note
| b   Bend
| pb  Pre-bend
| br  Bend release
| pbr Pre-bend release
| brb Bend release bend

************************************
Добавлено: 11.07.2012
Другие материалы по этой песне:
  • Аккорды и текст

Страница создана 26.05.2012
http://primanota.ru/anouk/its-a-shame-chords.htm
Привет, Гость.
Предлагаем пройти революционный курс по гитаре.
Подарок от PrimaNota.Ru, забирай!