PrimaNota.ru - самый крупный в мире бесплатный архив песенных текстов, аккордов, табулатур и нот


Anouk - If I Go - таба, бас-таба, видео

Регистрация Запомнить меня
Войти через:  Facebook Google Twitter Vk Yandex Mail.ru

Anouk - If I Go - таба, бас-таба, видео

Печатать
Просмотров: 267
Уроки эстрадного вокала в Санкт-Петербурге
this is my first tab ever, so dont expect too much of it.
play whole song with distortion
INTRO
--------------------|
--------------------|
--------------------|
--------------------|
-0-0-2-0-6-2--------|
-0-0-2-0-6-2--------|       repeat until pre-chorus

PRE-CHORUS
-------------------------   ------------|
-------------------------   ------------|
-------------------------   ------------|
-5555555511111111--------   -55555555-1-|
-333333330000000022222222   -33333333-0-|
-----------------22222222 x3------------|


CHORUS
--------------------------------------------------------------------|
--------------------------------------------------------------------|
--------------------------------------------------------------------|
55555555--11111111------------55555555--11111111--------------------|
33333333--00000000-00-2-0-6-4-33333333--00000000-2222222255555555---|
-------------------00-2-0-6-4--------------------2222222255555555---|  x2

----------------------------------|
----------------------------------|
----------------------------------|
----------------------------------|
55555555-11111111-7777777777777777|
33333333-00000000-5555555555555555|
----------------------------------|


repeat all above until bridge

BRIDGE
the bridge is played with 6 guitarists,so i am one of the 6:P
this is my part of the bridge:

--11--11----8----8----3---3---3-----3-|
----12--------10--------5--------5----|
--------------------------------------|
--------------------------------------|
--------------------------------------|
--------------------------------------| repeat till outro


OUTRO

just the same as intro:

-------------|
-------------|
-------------|
-------------|
-0-0-2-0-6-2-|
-0-0-2-0-6-2-|  repeat as long as until the song ends
Добавлено: 12.03.2012
Другие материалы по этой песне:

Страница создана 12.03.2012
http://primanota.ru/anouk/if-i-go-chords.htm
Привет, Гость.
Предлагаем пройти революционный курс по гитаре.
Подарок от PrimaNota.Ru, забирай!