PrimaNota.ru - самый крупный в мире бесплатный архив песенных текстов, аккордов, табулатур и нот


Another Green World - Wilderness - таба, видео

Регистрация Запомнить меня
Войти через:  Facebook Google Twitter Vk Yandex Mail.ru

Another Green World - Wilderness - таба, видео

Печатать
Просмотров: 27
Another Green World - Wilderness
Track 7 from the album "Memorial" (80s Ladies Records 2014).

Tabbed by Isaac Murguia, February 2015.
Originally uploaded to Ultimate-Guitar.com
Contact: www.youtube.com/user/Goadiroth

CAPO on 2nd Fret.
Only some parts are tabbed in relation to the capo.
I will mark those sections. All other parts are not relative to capo.

INTRO A:
e|------||-----------------------------------|-------------------------------|
B|-15\--||-----------------------------------|-------------------------------|
G|------||-9-11--11-11-11--9-11-11--11-11-11-|-9-11--11-11-11--9-11-7--7-7-7-|
D|------||-----------------------------------|-------------------------------|
A|------||-----------------------------------|-------------------------------|
E|------||-----------------------------------|-------------------------------| [x2]

INTRO B:
e|-------------------------------------------|--------------------------------------------|
B|-------------------------------------------|--------------------------------------------|
G|-11-12-11-----------11--12-11--------------|-11-12-11----------14--14-12-12-11-11-11-11-|
D|----------12-12-12------------12-12-12-12--|----------12-12-12--------------------------|
A|-------------------------------------------|--------------------------------------------|
E|-------------------------------------------|--------------------------------------------|

e|-------------------------------------------|-----------------------------------------|
B|-------------------------------------------|-----------------------------------------|
G|-11-12-11-----------11--12-11--------------|-11-12-11----------14--14-12-12-11-12-11-|
D|----------12-12-12------------12-12-12-12--|----------12-12-12-----------------------|
A|-------------------------------------------|-----------------------------------------|
E|-------------------------------------------|-----------------------------------------|

BRIDGE: (the 14s are triplets)
e|---------------------------------|-----------------------------------|
B|---------------------------------|-----------------------------------|
G|-141414-141414-12-11--7--7-9-999-|-141414-141414-12-11--9--9-11-9-11-|
D|-\----/-\----/-------------------|-\----/-\----/---------------------|
A|---------------------------------|-----------------------------------|
E|---------------------------------|-----------------------------------|

e|-------------------------------|---------------------------------|
B|-------------------------------|---------------------------------|
G|-141414-141414-12-11--7779-7-9-|-141414-141414-12-11--99911-9-11-|
D|-\----/-\----/-----------------|-\----/-\----/-------------------|
A|-------------------------------|---------------------------------|
E|-------------------------------|---------------------------------|

e|-------------------------|------------------------------|
B|-------------------------|------------------------------|
G|-9-11--9-11--9-11--14-12-|-9-11--9-11--9-11--14-12-11-9-|
D|-------------------------|------------------------------|
A|-------------------------|------------------------------|
E|-------------------------|------------------------------| [x2]

VERSE: (relative to capo)
  Guitar 1
e|-0------0-----0-------0-----|-3------3-----0-------0-----|
B|---1------1------3------3---|---0------0------1------1---|
G|-----2------2------4------4-|-----0------0------2------2-|
D|----------------------------|----------------------------|
A|----------------------------|----------------------------|
E|----------------------------|----------------------------| [x4]
  Guitar 2 (comes in on 3rd repetition of gtr 1)
e|-0---0---0---0---|
B|-1---0---0---1---|
G|-2---0---0---2---|
D|-3---0---2---3---|
A|-3---2---2---3---|
E|-----3---0-------| [x2]

CHORUS: (relative to capo)
e|-0---0---0---0---|
B|-1---0---0---1---|
G|-2---0---0---2---|
D|-3---0---2---3---|
A|-3---2---2---3---|
E|-----3---0-------| [x6]

Repeat VERSE
Repeat CHORUS [x4]
Repeat INTRO B

GUITAR SOLO:
e|----------------------------------------------|
B|-------------12-12-15-15----------12----------|
G|-11-11-14-14-------------14-14-14----14-14-14-|
D|----------------------------------------------|
A|----------------------------------------------|
E|----------------------------------------------| [x2]

e|-----------------------------------------|
B|-------------12-12-15-15--15-15-15-12----|
G|-11-11-14-14--------------------------14-|
D|-----------------------------------------|
A|-----------------------------------------|
E|-----------------------------------------| [x2]

Repeat BRIDGE

End. Please rate! :D
Добавлено: 28.07.2015
Другие материалы по этой песне:
  • Аккорды и текст

Страница создана 28.07.2015
http://primanota.ru/another-green-world/wilderness-chords.htm
Привет, Гость.
Предлагаем пройти революционный курс по гитаре.
Подарок от PrimaNota.Ru, забирай!