PrimaNota.ru - самый крупный в мире бесплатный архив песенных текстов, аккордов, табулатур и нот


Another Animal - Broken Again - текст песни, таба, видео

Регистрация Запомнить меня
Войти через:  Facebook Google Twitter Vk Yandex Mail.ru

Another Animal - Broken Again - текст песни, таба, видео

Печатать
Просмотров: 181
Авторы: Tony Rombola, Whitfield Crane, Shannon Larkin, Lee Richards

Artist: Another Animal
Song: Broken Again
Tabbed By: Casey Keim
Tuning: Drop B (B F# B E G# C#)

Intro Gtr I & II (clean)
C#------------------------------------|
G#----3-------3--3------3-------3--3--|
E------2-------2--2------2-------2--2-|
B----0--0-3------------2--2-1---------|
F#--0-----3-----------2-----1---------|
B--0------3-----3----2------1-----1---|

C#--------------------------------|
G#----3-------3--3------3---3~~~--|
E------2-------2--2------2--2~~~--|
B----0--0-3------------2--2-1~~~--|
F#--0-----3-----------2-----1~~~--|
B--0------3-----3----2------1~~~--|

Verse Gtr I & II (clean)
C#------------------------------------|
G#----3-------3--3------3-------3--3--|
E------2-------2--2------2-------2--2-|
B----0--0-3------------2--2-1---------| 2x
F#--0-----3-----------2-----1---------|
B--0------3-----3----2------1-----1---|

Gtr I (clean)
C#------------------------------------|
G#----3-------3--3------3-------3--3--|
E------2-------2--2------2-------2--2-|
B----0--0-3------------2--2-1---------| 2x
F#--0-----3-----------2-----1---------|
B--0------3-----3----2------1-----1---|

Gtr II (distortion)
C#-------------------------------------|
G#-------------------------------------|
E-------------2-0----------------------|
B--0~~~~~~3~~~---2-0-2~~~~~~1~~~-------| 2x
F#-0~~~~~~3~~~-------2~~~~~~1~~~---3h5-|
B--0~~~~~~3~~~-------2~~~~~~1~~~3h5----|

Chorus Gtr I & II (distortion)
C#---------------------------------------|
G#----3-------3--3---------3-------3--3--|
E------2-------2--2---------2-------2--2-|
B--0----0---3-----------2----2-1---------| 4x
F#-0--------3-----------2------1---------|
B--0--------3----3------2------1-----1---|

Bridge Gtr I & II (distortion)
C#-----------------------------|
G#-----------------------------|
E--5-7-----5-7-----------------|
B--5-7-0-0-5-7-3---5---3h5-3p0-|
F#-3-5-0-0-3-5-3---5---3h5-3p0-|
B------0-0-----3---5---3h5-3p0-|

I haven't figured out the solos yet, and I'm not even sure how correct this tab is but 
sounds close enough to me when I play it with the song.
Добавлено: 01.06.2012
Вам также может быть интересно:
Другие материалы по этой песне:

Страница создана 01.06.2012
http://primanota.ru/another-animal/broken-again-chords.htm
Привет, Гость.
Предлагаем пройти революционный курс по гитаре.
Подарок от PrimaNota.Ru, забирай!