PrimaNota.ru - самый крупный в мире бесплатный архив песенных текстов, аккордов, табулатур и нот


Anorexia Nervosa - Chtiment De La Rose - таба, видео

Регистрация Запомнить меня
Войти через:  Facebook Google Twitter Vk Yandex Mail.ru

Anorexia Nervosa - Chtiment De La Rose - таба, видео

Печатать
Просмотров: 133
Tabbed by: Luke Ellis
Email: sparda716@yahoo.com

Band Website: http://www.mother-anorexia.com/

Tuning:(3 Steps Down)
B
F#
D
A
E
B

B|--------------------------------------------------------------------------|
F#|-------------------------------------------------------------------------|
D|-------------9------7------9-7-5--------------------------------9---------|
A|----7-------10------9-----10-3-7------9-------10-------12-----------------|
E|----7-------------------------------7---7---7----7---7----7---7-----------|
B|--0-5----0-------0-----0----------7-------7--------7--------7-------------|


B|--------------------------------------------------------------------------|
F#|-------------------------------------------------------------------------|
D|---------------------------14-16------------------------------------------|
A|-----7----10-----12-15-14--12-14--13-14-11--------------------------------|
E|--0--5--0--8--0--12-13-12--12-14--11-12-11--------------------------------|
B|-----------------12-13-12---------11-12-11--------------------------------|


B|--------------------------------------------------------------------------|
F#|-------------------------------------------------------------------------|
D|--7-----------------------------------------------------------------------|
A|----10-9-7--10--9-7-6-7---------------------------------------------------|
E|------------10--9-7-6-7---------------------------------------------------|
B|-------------8--7-5-4-5---------------------------------------------------|


B|--------------------------------------------------------------------------|
F#|-------------------------------------------------------------------------|
D|--------------------------------------------------------------------------|
A|--7-9-7-9-10-10-14----10-9-7-6-9------------------------------------------|
E|--5-7-5-7--8--8-12-----8-7-5-4-7------------------------------------------|
B|--------------------------------------------------------------------------|


B|--------------------------------------------------------------------------|
F#|-------------------------------------------------------------------------|
D|--------------------------------------------------------------------------|
A|--7-7-5-5-5-5-5------8-8--8-10-12-10-8---5-5-6-8-6------------------------|
E|--5-5-5-8-7-5-7------7-7-10-12-13-12-10--8-3-4-6-4------------------------|
B|--------------------------------------------------------------------------|


B|--------------------------------------------------------------------------|
F#|-------------------------------------------------------------------------|
D|--------------------------------------------------------------------------|
A|--7-10-9---7-10-9-7-10-9-7-7-7-3---7-5-7-5-7-9-12-10-9-7-11-14------------|
E|--7--8-7---5--8-7-5--8-7-5-9-5-5---5-3-3-3-5-7-10--8-7-8-12-16------------|
B|--5--8-7---5--8-----------------------------------------------------------|


B|--------------------------------------------------------------------------|
F#|-------------------------------------------------------------------------|
D|--------------------------------------------------------------------------|
A|-10--9----9---------10---9------6---7-------------------------------------|
E|---8--7-7---7----------8---7--7---4---5-----------------------------------|
B|--------------5-------------------------5--5------------------------------|


B|--------------------------------------------------------------------------|
F#|----------------------------------------------9-8-----12-11-8------------|
D|----------------7-6-----10-9-6---------9-8---------9----------------------|
A|---------7-6--------7-----------7----------10-----------------------------|
E|--5----------8--------------------8-7-------------------------------------|
B|----6-5-------------------------------------------------------------------|


B|--------------------------------------------------------------------------|
F#|-------------------------------------------------------------------------|
D|--------------------------------------------------------------------------|
A|--6-7-10-9-6--------------------------------------------------------------|
E|--4-5--8-7-4--------------------------------------------------------------|
B|--4-5--8-7-4--------------------------------------------------------------|


B|--------------------------------------------------------------------------|
F#|-------------------------------------------------------------------------|
D|--------------------------------------------------------------------------|
A|--7-5-7-8-7-7-5-7-8-7-6-4-6-7-6--8-7-5----------6---6---------------------|
E|--5-5-5-5-5-5-5-5-5-5-4-4-4-4-4---------8-7-5---4-6-4---------------------|
B|----------------------------------------------------4---------------------|


B|--------------------------------------------------------------------------|
F#|-------------------------------------------------------------------------|
D|--------------------------------------------------------------------------|
A|--10-8-10-11-10-10-8-10-11-10-9-7-9-10-9-----11-10-8------------9---9-----|
E|---8-8--8--8--8--8-8--8--8--8-7-7-7--7-7--------------11-10-8---7-9-7-----|
B|--------------------------------------------------------------------7-----|


B|--------------------------------------------------------------------------|
F#|------------------5----6-5------------------5----5-6-8-------------------|
D|------------7-6-7----7------7----------7-6-7---7--------------------------|
A|-------6-7-------------------------6-7------------------------------------|
E|--5-8--------------------------5-8----------------------------------------|
B|--------------------------------------------------------------------------|

| /  slide up
| \  slide down
| h  hammer-on
| p  pull-off
| ~  vibrato
| +  harmonic
| x  Mute note
============================================================================
Добавлено: 23.04.2012
Другие материалы по этой песне:
  • Аккорды и текст

Страница создана 23.04.2012
http://primanota.ru/anorexia-nervosa/chtiment-de-la-rose-chords.htm
Привет, Гость.
Предлагаем пройти революционный курс по гитаре.
Подарок от PrimaNota.Ru, забирай!