PrimaNota.ru - самый крупный в мире бесплатный архив песенных текстов, аккордов, табулатур и нот


Anonymous - The Wheels On The Bus - таба, видео

Регистрация Запомнить меня
Войти через:  Facebook Google Twitter Vk Yandex Mail.ru

Anonymous - The Wheels On The Bus - таба, видео

Печатать
Просмотров: 143
-------------------------------------------------------------------------------
                             The Wheels on the Bus - Anonymous
-------------------------------------------------------------------------------
Tabbed by: Matthew Sommerfeldt (MGS22)
E-mail: sommer77@hotmail.com 

Tuning:

e|---------------------------------------------------------------------------|
B|---------------------------------------------------------------------------|
G|----------------0-------------------------------------0-------------------.|
D|--------------2---2---------------------------------2---2-----------------.|
A|----3--3--3-3-------3---5-5-5--2----------3--3--3-3-------3--5--5---2-3----|
E|-3-------------------------------5-3---3--------------------------3--------|


************************************

| /   slide up
| \   slide down
| h   hammer-on
| p   pull-off
| ~   vibrato
| +   harmonic
| x   Mute note
| b   Bend
| pb  Pre-bend
| br  Bend release
| pbr Pre-bend release
| brb Bend release bend

************************************
Добавлено: 27.08.2015
Другие материалы по этой песне:
  • Аккорды и текст

Страница создана 27.08.2015
http://primanota.ru/anonymous/wheels-on-bus-chords.htm
Привет, Гость.
Предлагаем пройти революционный курс по гитаре.
Подарок от PrimaNota.Ru, забирай!