PrimaNota.ru - самый крупный в мире бесплатный архив песенных текстов, аккордов, табулатур и нот


Annuals - Sore - таба, видео

Регистрация Запомнить меня
Войти через:  Facebook Google Twitter Vk Yandex Mail.ru

Annuals - Sore - таба, видео

Печатать
Просмотров: 174
----------------------------------------------------------------------------
                             Sore - Annuals
----------------------------------------------------------------------------
Tabbed by: Kylan M
Email: legitimatecry@hotmail.com

Hey everyone, this is my first tab but I think it's pretty accurate.
I've tabbed most of the guitar riffs except for the chords during the chorus of the song 
couldn't pick them out exactly). If anyone has any questions or suggestions you can 
me at the email address above. Enjoy!


Tuning: Standard

Capo on 3


E|--2h4-4-------------------0------2h4-4-7----------------------|
B|--------0-2---2---0-2-0-----2-0----------2---2---0-2-0--------|
G|---------------------------------------------------------2-1--|
D|--------------------------------------------------------------|
A|----------0-----0-------0----------------0-----0-------0------|
E|--0-----------------------------------------------------------|

e|-----------------------------|
B|--------2--------------2-----|
G|-----3----3---3------3---3---|
D|------------4------4-------4-|
A|--4--------------------------|
E|-----------------2-----------|

e|--5h7-7-0-2---2p0---0-4----|
B|-----------------2------0--|
G|---------------------------|
D|---------------------------|
A|----------0----------------|
E|--0------------------------|

| /  slide up
| \  slide down
| h  hammer-on
| p  pull-off
| ~  vibrato
| +  harmonic
| x  Mute note
=============================================================================
Добавлено: 15.06.2012
Другие материалы по этой песне:
  • Аккорды и текст

Страница создана 15.06.2012
http://primanota.ru/annuals/sore-chords.htm
Привет, Гость.
Предлагаем пройти революционный курс по гитаре.
Подарок от PrimaNota.Ru, забирай!