PrimaNota.ru - самый крупный в мире бесплатный архив песенных текстов, аккордов, табулатур и нот


Annuals - Brother - текст песни, таба, видео

Регистрация Запомнить меня
Войти через:  Facebook Google Twitter Vk Yandex Mail.ru

Annuals - Brother - текст песни, таба, видео

Печатать
Просмотров: 152
Brother by Annuals
Be He Me, 2006

Tabbed by Thomas Buhler
If you find any mistakes, or have any questions about this tab, email me at:
t[dot]buhler[dot]007[at]gmail[dot]com

Tuned 1/2 step down. All chords and tabs relative to tuning.

Chords:
D     - xx0232
Dsus2 – xx0230
Gmaj7 – 320002
A     - x02220
G     - 320003

INTRO: (play the rest of this song in this way)
  D            Dsus2        D            Dsus2        Gmaj7        Gmaj7
e|-------2----|-------2--0-|-------2----|-------2--0-|------------|------------|---|
B|---3--------|---3--------|---3--------|---3--------|------------|------------|---|
G|-----2------|-----2------|-----2------|-----2------|------------|------------|---|
D|-0----------|-0----------|-0----------|-0----------|-----0-4-0--|-----0-4-0--|---|
A|------------|------------|------------|------------|---2-------2|---2-------2|---|
E|------------|------------|------------|------------|-3----------|-3----------|---|

    D         Dsus2
-----2----|-------2--0-|
-3--------|---3--------|
---2------|-----2------|
0----------|-0---------|
----------|------------|
----------|------------|


VERSE 1:
D            Dsus2
  Me, and my Brother hiking.
D            Dsus2                Gmaj7    Gmaj7
  Me, and my Brother might find a turtle.
                     D     Dsus2
We'll just have some fun.

VERSE 2:
D            Dsus2           D
  Me, and my Brother playing with our dog;
Dsus2                        Gmaj7  Gmaj7
       Two mighty men with a wolf,
                    D      Dsus2
Who drinks from the gulf.

D Dsus2 D Dsus2

BRIDGE:
Gmaj7 Gmaj7  D                         Dsus2
Cool, calm - water will bring back our voice to Mother.

D Dsus2 x4

CHORUS: (play in full chords)
D A D A G

VERSE 3:
D         A D            A
  I fell down in a creek bed.
D         A  D                A   G
  Brother wept. In his face I met fear;
                       D
That I could die right there.

(But I climbed right out.)

SOLO:
e|------------------------|------------------------|------------------------|-----|
B|------------------------|------------------------|------------------------|-----|
G|-------2----------------|-------2----------------|-------2----------------|-----|
D|---------4-2/4----------|---------4-2-4-2-0------|---------4-2/4----------|-----|
A|-2/4-0------------------|-2/4-0------------------|-2/4-0------------------|-2/4-|
E|------------------------|------------------------|------------------------|-----|

-------------------|
-------------------|
--2-----4-----2----|
----4-2------------|
0-----------------5|
-------------------|

e|------------------------|------------------------|------------------------|
B|------------------------|-----2-------3----------|------------------------|
G|------------------------|------------------------|------------------------|
D|-----4-------0----------|-2-------2--------4-----|-0----------------------|
A|-4-------4--------------|------------------------|------------------------|
E|------------------------|------------------------|------------------------|

VERSE 4:
D             A D              A
  Now I've grown bold, and lonely.
  D              A D              A       G
I should have stayed with dear Brother at home,
               D
But we grew up old.

OUTRO:
D A D A G x1
Добавлено: 26.02.2012
Другие материалы по этой песне:
  • Аккорды и текст

Страница создана 26.02.2012
http://primanota.ru/annuals/brother-chords.htm
Привет, Гость.
Предлагаем пройти революционный курс по гитаре.
Подарок от PrimaNota.Ru, забирай!