PrimaNota.ru - самый крупный в мире бесплатный архив песенных текстов, аккордов, табулатур и нот


Annihilator - Wind - текст песни, таба, видео

Регистрация Запомнить меня
Войти через:  Facebook Google Twitter Vk Yandex Mail.ru

Annihilator - Wind - текст песни, таба, видео

Печатать
Просмотров: 195
Annihilator - Wind

tabbed by 
ol753_357lo@yahoo.co.uk

Tuning - E A D G B E


Gtr 1
play twice
|------------------------------------|
|------------------------------------|
|------------------------------------|
|---4---0---2---2---4---0---2---2----|
|-2-------0-------2-------0----------|
|-----3-------0-------3-------0------|


Gtr 1
play twice
|------------------------------------|
|------------------------------------|
|------------------------------------|
|---4---0---2---2---4---0---2---2----|
|-2-------0-------2-------0----------|
|-----3-------0-------3-------0------|


Gtr 2
|-------14----|
|----15-------|
|-14----------|
|-------------|
|-------------|
|-------------|


|-------14----|
|----15-------|
|-14----------|
|-------------|
|-------------|
|-------------|


|------|
|-0\n--|
|------|
|------|
|------|
|------|


Gtr 3
play twice
|-2----------|
|-3----------|
|-4----------|
|------------|
|------------|
|------------|


Gtr 1
play 4 times
|------------------------------------|
|------------------------------------|
|------------------------------------|
|---4---0---2---2---4---0---2---2----|
|-2-------0-------2-------0----------|
|-----3-------0-------3-------0------|


Gtr 1
play 4 times
|------------------------------------|
|------------------------------------|
|------------------------------------|
|---4---0---2---2---4---0---2---2----|
|-2-------0-------2-------0----------|
|-----3-------0-------3-------0------|


Gtr 2
|----------------------------------------------------------------|
|-0-0-0-0-0-0-0-0-0-0-0-0-0-0-0-0-0-0-0-0-0-0-0-0-0---0-0-0-0----|
|-4-4-4-4-4-4-4-4-4-4-4-4-4-4-4-4-4-4-4-4-4-4-4-6-6h7-6-4-2-4----|
|----------------------------------------------------------------|
|----------------------------------------------------------------|
|----------------------------------------------------------------|


|--------|
|---0----|
|-2-7----|
|--------|
|--------|
|--------|


|-<7>----|
|-<7>----|
|-<7>----|
|--------|
|--------|
|--------|


Gtr 1
|------------------------------------|
|------------------------------------|
|---------3---------------5----------|
|-----7-----7---------9-----9--------|
|---5---5-----5-----7---7-----7------|
|-3-------------3-5-------------5----|


Gtr 2
|-0----------0---------|
|---6----------8-------|
|-----7----------11----|
|----------------------|
|----------------------|
|----------------------|

Gtr 3
|-------------------|
|-------------------|
|-<5>\n------<5>\n--|
|-------------------|
|-------------------|
|-------------------|


Gtr 1
|------------------------------------|
|------------------------------------|
|------------------------------------|
|---4---0---2---2---4---0---2---2----|
|-2-------0-------2-------0----------|
|-----3-------0-------3-------0------|


Gtr 2
|------------0-----------------0---------|
|-------8------8----------8------8-------|
|----11---11-----11----11---11-----11----|
|--9-----------------9-------------------|
|----------------------------------------|
|----------------------------------------|


Gtr 1
|------------------------------------|
|------------------------------------|
|---------3---------------5----------|
|-----7-----7---------9-----9--------|
|---5---5-----5-----7---7-----7------|
|-3-------------3-5-------------5----|


Gtr 2
|-0----------0---------|
|---6----------8-------|
|-----7----------11----|
|----------------------|
|----------------------|
|----------------------|

Gtr 3
|-------------------|
|-------------------|
|-<5>\n------<5>\n--|
|-------------------|
|-------------------|
|-------------------|


Gtr 1
|------------------------------------|
|------------------------------------|
|------------------------------------|
|---4---0---2---2---4---0---2---2----|
|-2-------0-------2-------0----------|
|-----3-------0-------3-------0------|


Gtr 2
|------------0-----------------0---------|
|-------8------8----------8------8-------|
|----11---11-----11----11---11-----11----|
|--9-----------------9-------------------|
|----------------------------------------|
|----------------------------------------|


Gtr 1
|------------------------------------|
|------------------------------------|
|------------------------------------|
|---4---0---2---2---4---0---2---2----|
|-2-------0-------2-------0----------|
|-----3-------0-------3-------0------|


play twice
|---------------------------|
|---------------------------|
|---------------------------|
|-4-----2-----4-----2-------|
|-2-----0-----2-----0-------|
|----3-----0-----3-----0----|


Gtr 2
|--------------------------------------------------------------------|
|-0-0-0-0-0-0-0-0-0-0-0-0-0-0-0-0-0-0-0-0-0-0-0-0-0-0-0-0-0-0-0-0----|
|-4-4-4-4-4-4-4-4-4-4-4-7-7-7-6-6-4-4-4-4-4-4-4-4-4-4-4-7-7-7-9-9----|
|--------------------------------------------------------------------|
|--------------------------------------------------------------------|
|--------------------------------------------------------------------|


|--------------------------------------|
|-0---0-0-0-0-0-0-0-0-0-0-0-0-0-0-0----|
|-6S4-4-4-4-4-4-4-4-4-4-7-7-7-6-6-4----|
|--------------------------------------|
|--------------------------------------|
|--------------------------------------|


Gtr 1
play 8 times
|------------------------------------|
|------------------------------------|
|------------------------------------|
|---4---0---2---2---4---0---2---2----|
|-2-------0-------2-------0----------|
|-----3-------0-------3-------0------|


Gtr 2
3rd time, play twice
|-2----------|
|-3----------|
|-4----------|
|------------|
|------------|
|------------|


Gtr 2
5th time, play 4 times
|---------------------------|
|---------------------------|
|---------------------------|
|-4-----2-----4-----2-------|
|-2-----0-----2-----0-------|
|----3-----0-----3-----0----|


Gtr 3
5th time
|----------------------------------------------------------------|
|-0-0-0-0-0-0-0-0-0-0-0-0-0-0-0-0-0-0-0-0-0-0-0-0-0---0-0-2-3----|
|-4-4-4-4-4-4-4-4-4-4-4-4-4-4-4-4-4-4-4-4-4-4-4-6-6h7-6-4-2-4----|
|----------------------------------------------------------------|
|----------------------------------------------------------------|
|----------------------------------------------------------------|


|----------------------------------------------------------------|
|-0-0-0-0-0-0-0-0-0-0-0-0-0-0-0-0-0-0-0-0-0-0-0-0-0-0-0-0-0-0-0--|
|-4-4-4-4-4-4-4-4-4-4-4-4-4-4-4-4-4-4-4-4-4-4-4-4-4-4-4-4-4-4-4--|
|----------------------------------------------------------------|
|----------------------------------------------------------------|
|----------------------------------------------------------------|


Gtr 1
|------------------------------------|
|------------------------------------|
|---------3---------------5----------|
|-----7-----7---------9-----9--------|
|---5---5-----5-----7---7-----7------|
|-3-------------3-5-------------5----|


Gtr 2
|-0----------0---------|
|---6----------8-------|
|-----7----------11----|
|----------------------|
|----------------------|
|----------------------|

Gtr 3
|-------------------|
|-------------------|
|-<5>\n------<5>\n--|
|-------------------|
|-------------------|
|-------------------|


Gtr 1
|------------------------------------|
|------------------------------------|
|------------------------------------|
|---4---0---2---2---4---0---2---2----|
|-2-------0-------2-------0----------|
|-----3-------0-------3-------0------|


Gtr 2
|---------------------------|
|---------------------------|
|---------------------------|
|-4-----2-----4-----2-------|
|-2-----0-----2-----0-------|
|----3-----0-----3-----0----|


Gtr 3
|------------0-----------------0---------|
|-------8------8----------8------8-------|
|----11---11-----11----11---11-----11----|
|--9-----------------9-------------------|
|----------------------------------------|
|----------------------------------------|


Gtr 1
|------------------------------------|
|------------------------------------|
|---------3---------------5----------|
|-----7-----7---------9-----9--------|
|---5---5-----5-----7---7-----7------|
|-3-------------3-5-------------5----|


Gtr 2
|-0----------0---------|
|---6----------8-------|
|-----7----------11----|
|----------------------|
|----------------------|
|----------------------|

Gtr 3
|-------------------|
|-------------------|
|-<5>\n------<5>\n--|
|-------------------|
|-------------------|
|-------------------|


Gtr 1
|------------------------------------|
|------------------------------------|
|------------------------------------|
|---4---0---2---2---4---0---2---2----|
|-2-------0-------2-------0----------|
|-----3-------0-------3-------0------|


Gtr 2
|---------------------------|
|---------------------------|
|---------------------------|
|-4-----2-----4-----2-------|
|-2-----0-----2-----0-------|
|----3-----0-----3-----0----|


Gtr 3
|------------0-----------------0---------|
|-------8------8----------8------8-------|
|----11---11-----11----11---11-----11----|
|--9-----------------9-------------------|
|----------------------------------------|
|----------------------------------------|


Gtr 1
play 3 times
|------------------------------------|
|------------------------------------|
|------------------------------------|
|---4---0---2---2---4---0---2---2----|
|-2-------0-------2-------0----------|
|-----3-------0-------3-------0------|



Gtr 2
play 3 times
|---------------------------|
|---------------------------|
|---------------------------|
|-4-----2-----4-----2-------|
|-2-----0-----2-----0-------|
|----3-----0-----3-----0----|


Gtr 3
|--------------------------------------------------------------------|
|-0-0-0-0-0-0-0-0-0-0-0-0-0-0-0-0-0-0-0-0-0-0-0-0-0-0-0-0-0-0-0-0----|
|-4-4-4-4-4-4-4-4-4-4-4-7-7-7-6-6-4-4-4-4-4-4-4-4-4-4-4-7-7-7-9-9----|
|--------------------------------------------------------------------|
|--------------------------------------------------------------------|
|--------------------------------------------------------------------|


|------------------------------------|
|-0---0-0-0-0-0-0-0-0-0-0-0-0-0-0----|
|-6S4-4-4-4-4-4-4-4-4-4-7-7-7-6-6----|
|------------------------------------|
|------------------------------------|
|------------------------------------|


Gtr 1
play 4 times
|------------------------------------|
|------------------------------------|
|------------------------------------|
|---4---0---2---2---4---0---2---2----|
|-2-------0-------2-------0----------|
|-----3-------0-------3-------0------|


Gtr 2
3rd time, play twice
      PM--------|     PM--------|
|------------------------------------|
|------------------------------------|
|------------------------------------|
|-4-4-----2-2-----4-4-----2-2--------|
|-2-2-----0-0-2-2-2-2-----0-0-2-2----|
|-----3-3-----0-0-----3-3-----0-0----|


Gtr 1
|------------------------------------|
|------------------------------------|
|---------3---------------5----------|
|-----7-----7---------9-----9--------|
|---5---5-----5-----7---7-----7------|
|-3-------------3-5-------------5----|


Gtr 2
|-------------|
|-------------|
|-------------|
|-------------|
|-------------|
|-3------5----|


Gtr 3
|-------------------|
|-------------------|
|-<5>\n------<5>\n--|
|-------------------|
|-------------------|
|-------------------|


Gtr 1
|------------------------------------|
|------------------------------------|
|------------------------------------|
|---4---0---2---2---4---0---2---2----|
|-2-------0-------2-------0----------|
|-----3-------0-------3-------0------|


Gtr 2
  PM----------------------------|
|------------------------------------|
|------------------------------------|
|------------------------------------|
|-4-4-----2-2-----4-4-----2-2--------|
|-2-2-----0-0-2-2-2-2-----0-0-2-2----|
|-----3-3-----0-0-----3-3-----0-0----|


Gtr 1
|------------------------------------|
|------------------------------------|
|---------3---------------5----------|
|-----7-----7---------9-----9--------|
|---5---5-----5-----7---7-----7------|
|-3-------------3-5-------------5----|


Gtr 2
|-------------|
|-------------|
|-------------|
|-------------|
|-------------|
|-3------5----|


Gtr 3
*kerazy whammy bar stuff
|-------------------|
|-------------------|
|-<5>*-------<5>\n--|
|-------------------|
|-------------------|
|-------------------|


Gtr 1
|------------------------------------|
|------------------------------------|
|---------3---------------5----------|
|-----7-----7---------9-----9--------|
|---5---5-----5-----7---7-----7------|
|-3-------------3-5-------------5----|


Gtr 2
|-------------|
|-------------|
|-------------|
|-------------|
|-------------|
|-3------5----|


Gtr 3
|-------------------|
|-------------------|
|-<5>\n------<5>\n--|
|-------------------|
|-------------------|
|-------------------|


Gtr 1
|------------------------------------|
|------------------------------------|
|------------------------------------|
|---4---0---2---2---4---0---2---2----|
|-2-------0-------2-------0----------|
|-----3-------0-------3-------0------|


Gtr 2
  PM------------------------|
|------------------------------------|
|------------------------------------|
|------------------------------------|
|-4-4-----2-2-----4-4-----2-2--------|
|-2-2-----0-0-2-2-2-2-----0-0--------|
|-----3-3-----0-0-----3-3-----\------|


Both Gtrs
play twice
                                             PM----|
|-------------------------------------------------------|
|-------------------------------------------------------|
|------0--0-0-------------------0--0-0------------------|
|-4--4-0--0-0---2----------4--4-0--0-0--2---------------|
|-2--2-2--2-2---0--2--2-2--2--2-2--2-2--0--2------------|
|------3--3-3-3----0--0-0-------3--3-3-----0-0-0-0-0----|


Gtr 1, Gtr 2 Lead (to be added)
                                             PM----|
|-------------------------------------------------------|
|-------------------------------------------------------|
|------0--0-0-------------------0--0-0------------------|
|-4--4-0--0-0---2----------4--4-0--0-0--2---------------|
|-2--2-2--2-2---0--2--2-2--2--2-2--2-2--0--2------------|
|------3--3-3-3----0--0-0-------3--3-3-----0-0-0-0-0----|


Both Gtrs
play 4 times
                                             PM----|
|-------------------------------------------------------|
|-------------------------------------------------------|
|------0--0-0-------------------0--0-0------------------|
|-4--4-0--0-0---2----------4--4-0--0-0--2---------------|
|-2--2-2--2-2---0--2--2-2--2--2-2--2-2--0--2------------|
|------3--3-3-3----0--0-0-------3--3-3-----0-0-0-0-0----|


Gtr 1
|------------------------------------|
|------------------------------------|
|---------3---------------5----------|
|-----7-----7---------9-----9--------|
|---5---5-----5-----7---7-----7------|
|-3-------------3-5-------------5----|


Gtr 2
|-0----------0---------|
|---6----------8-------|
|-----7----------11----|
|----------------------|
|----------------------|
|----------------------|

Gtr 3
|-------------------|
|-------------------|
|-<5>\n------<5>\n--|
|-------------------|
|-------------------|
|-------------------|


Both Gtrs
                                             PM----|
|-------------------------------------------------------|
|-------------------------------------------------------|
|------0--0-0-------------------0--0-0------------------|
|-4--4-0--0-0---2----------4--4-0--0-0--2---------------|
|-2--2-2--2-2---0--2--2-2--2--2-2--2-2--0--2------------|
|------3--3-3-3----0--0-0-------3--3-3-----0-0-0-0-0----|


Gtr 1
|------------------------------------|
|------------------------------------|
|---------3---------------5----------|
|-----7-----7---------9-----9--------|
|---5---5-----5-----7---7-----7------|
|-3-------------3-5-------------5----|


Gtr 2
|-0----------0---------|
|---6----------8-------|
|-----7----------11----|
|----------------------|
|----------------------|
|----------------------|

Gtr 3
|-------------------|
|-------------------|
|-<5>\n------<5>\n--|
|-------------------|
|-------------------|
|-------------------|


Both Gtrs
                                             PM----|
|-------------------------------------------------------|
|-------------------------------------------------------|
|------0--0-0-------------------0--0-0------------------|
|-4--4-0--0-0---2----------4--4-0--0-0--2---------------|
|-2--2-2--2-2---0--2--2-2--2--2-2--2-2--0--2------------|
|------3--3-3-3----0--0-0-------3--3-3-----0-0-0-0-0----|


Both Gtrs
play 3 times, Gtr 3 Lead (to be added)
                                             PM----|
|-------------------------------------------------------|
|-------------------------------------------------------|
|------0--0-0-------------------0--0-0------------------|
|-4--4-0--0-0---2----------4--4-0--0-0--2---------------|
|-2--2-2--2-2---0--2--2-2--2--2-2--2-2--0--2------------|
|------3--3-3-3----0--0-0-------3--3-3-----0-0-0-0-0----|


Gtr 1
|---------------------------|
|---------------------------|
|---------------------------|
|-4-----2-----4-----2-------|
|-2-----0-----2-----0-------|
|----3-----0-----3-----0----|


Gtr 1
play 3 times
|------------------------------------|
|------------------------------------|
|------------------------------------|
|---4---0---2---2---4---0---2---2----|
|-2-------0-------2-------0----------|
|-----3-------0-------3-------0------|


4th time
|---------------------------------|
|---------------------------------|
|---------------------------------|
|---4---0---2---2---4---0---2-----|
|-2-------0-------2-------0-------|
|-----3-------0-------3-----------|


Gtr 2
|--------------------------------------------------------------------|
|-0-0-0-0-0-0-0-0-0-0-0-0-0-0-0-0-0-0-0-0-0-0-0-0-0-0-0-0-0-0-0-0----|
|-4-4-4-4-4-4-4-4-4-4-4-7-7-7-6-6-4-4-4-4-4-4-4-4-4-4-4-7-7-7-6-6----|
|--------------------------------------------------------------------|
|--------------------------------------------------------------------|
|--------------------------------------------------------------------|

|---------------------------------------------------------------------|
|-0-0-0-0-0-0-0-0-0-0-0-0-0-0-0-0-0-0-0-0-0-0-0-0-0-0-0-0-0-0-0----3--|
|-4-4-4-4-4-4-4-4-4-4-4-7-7-7-6-6-4-4-4-4-4-4-4-4-4-4-4-7-7-7-6S4--4--|
|---------------------------------------------------------------------|
|---------------------------------------------------------------------|
|---------------------------------------------------------------------|


Gtr 3
|----10---------<7>----|
|----10---------<7>----|
|---------------<7>----|
|---------------<7>----|
|----------------------|
|----------------------|


Gtr 1
|---------|
|--0\n----|
|--0\n----|
|--1\n----|
|--2\n----|
|---------|


Tablature Legend
----------------
 h   - hammer-on
 p   - pull-off
 b   - bend
 pb  - pre-bend
 r   - bend release (if no number after the r, then release immediately)
 /\  - slide into or out of (from/to "nowhere")
 s   - legato slide
 S   - shift slide
  - natural harmonic
[n]  - artificial harmonic
n(n) - tapped harmonic
 ~   - vibrato
 tr  - trill
 T   - tap
 TP  - trem. picking
 PM  - palm muting
\n/  - tremolo bar dip; n = amount to dip
 \n  - tremolo bar down
 n/  - tremolo bar up
/n\  - tremolo bar inverted dip
 =   - hold bend; also acts as connecting device for hammers/pulls
 <>  - volume swell (louder/softer)
 x   - on rhythm slash represents muted slash
 o   - on rhythm slash represents single note slash

Misc Legend
-----------
 |  - bar
||  - double bar
||o - repeat start
o|| - repeat end
*|  - double bar (ending)
 :  - bar (freetime)
 $  - Segno
 &  - Coda
Tempo markers -  = BPM(8/16=s8/s16), where s8 = swing 8ths, s16 = swing 16ths
Добавлено: 23.05.2012
Другие материалы по этой песне:
  • Аккорды и текст

Страница создана 23.05.2012
http://primanota.ru/annihilator/wind-chords.htm
Привет, Гость.
Предлагаем пройти революционный курс по гитаре.
Подарок от PrimaNota.Ru, забирай!