PrimaNota.ru - самый крупный в мире бесплатный архив песенных текстов, аккордов, табулатур и нот


Annihilator - Mending - таба, видео

Регистрация Запомнить меня
Войти через:  Facebook Google Twitter Vk Yandex Mail.ru

Annihilator - Mending - таба, видео

Печатать
Просмотров: 119
Авторы музыки: Jeff Waters

Annihilator - Mending

tabbed by ol753
www.annihilatormetal.com
ol753_357lo@yahoo.co.uk

Tuning - E A D G B E


Both Gtrs
play 3 times
|-------------2--------------------|
|-------2-2h3---3---------2-2h3----|
|-----4-----------4-----4----------|
|---4-----------------4------------|
|-2-----------------0--------------|
|----------------------------------|


4th time
|-------------2----------|
|-------2-2h3---3---2----|
|-----4-----------4-4----|
|---4---------------4----|
|-2-----------------0----|
|------------------------|


Both Gtrs
play twice
|-------------2-----------------2-----------0-2-0h2p0--------------------------|
|-------2-2h3---3---------2-2h3---3-------3-----------3---------2-3-2h3p2------|
|-----4-----------4-----4-----------4---2---------------2-----2-----------4-2--|
|---4-----------------4---------------0---------------------2------------------|
|-2-----------------0-------------------------------------0--------------------|
|------------------------------------------------------------------------------|


Gtr 3
|-------------------------|
|------------2--3--3S5----|
|-2h4---------------------|
|-------------------------|
|-------------------------|
|-------------------------|


|------------------------------|
|-3--------5--5S7--5---3--2----|
|------------------------------|
|------------------------------|
|------------------------------|
|------------------------------|


Gtr 3
|-------------------------|
|------------2--3--3S5----|
|-2h4---------------------|
|-------------------------|
|-------------------------|
|-------------------------|


|----------------------------|
|-3---------5S7--5---3--2----|
|----------------------------|
|----------------------------|
|----------------------------|
|----------------------------|


Gtr 4
|--------------------------|
|------------5--7--7S10----|
|-6h7----------------------|
|--------------------------|
|--------------------------|
|--------------------------|


|------------------------------|
|-7--------10S12--10---7--5----|
|------------------------------|
|------------------------------|
|------------------------------|
|------------------------------|


Both Gtrs
|-------3-----2---------3-----2---------3-----2---------0-----2------|
|-----3---3-----3-----3---3-----3-----3---3-----3-----3---3-----3----|
|---0-------0-------0-------0-------2-------2-------2-------2--------|
|---------------------------------0---------------0------------------|
|-2---------------3--------------------------------------------------|
|--------------------------------------------------------------------|


|-------3-----2---------3-----2---------0-----2---------0-----2------|
|-----3---3-----3-----3---3-----3-----3---3-----3-----3---3----------|
|---0-------0-------0-------0-------2-------2-------2-------2--------|
|---------------------------------0---------------0------------------|
|-2---------------3---------------------------------------------0----|
|--------------------------------------------------------------------|


|-------3-----2---------3-----2----|
|-----3---3-----3-----3---3-----3--|
|---0-------0-------0-------0------|
|----------------------------------|
|-2---------------3----------------|
|----------------------------------|


|------------------------------------------------------|
|-------3-----2---------3-----5---------3-----2---3----|
|-----2---2-----2-----2---2-----2-----2---2-----2-2----|
|---2-------2-------2-------2-------2-------2-----2----|
|-0---------------0---------------0---------------0----|
|------------------------------------------------------|


Gtr 3
|-------5-----5---------5-----5---------5-----5---------5-----5------|
|-----3---3-----3-----3---3-----3-----3---3-----3-----3---3-----3----|
|---0-------0-------0-------0-------2-------2-------2-------2--------|
|---------------------------------0---------------0------------------|
|-2---------------3--------------------------------------------------|
|--------------------------------------------------------------------|


|---------------------------------------5-----5---------5-----5----|
|-------3-----3---------3-----3-------3---3-----3-----3---3-----3--|
|-----0---0-----0-----0---0-----0---2-------2-------2-------2------|
|---5-------5-------5-------5-----0---------------0----------------|
|-2---------------3------------------------------------------------|
|------------------------------------------------------------------|


|-------5-----5---------5-----5----|
|-----3---3-----3-----3---3-----3--|
|---0-------0-------0-------0------|
|----------------------------------|
|-2---------------3----------------|
|----------------------------------|


|--------------------------------------------------5----|
|-------5-----5---------5-----5---------5-----5----5----|
|-----2---2-----2-----2---2-----2-----2---2-----2--2----|
|---2-------2-------2-------2-------2-------2-----------|
|-0---------------0---------------0---------------------|
|-------------------------------------------------------|


Both Gtrs
|-----------2-----------------2------|
|-------2h3---3---------2-2h3---3----|
|-----4---------4-----4-----------4--|
|---4---------------4----------------|
|-2---------------0------------------|
|------------------------------------|


|-------------2-----------------2------|
|-------2-2h3---3---------2-2h3---3----|
|-----4-----------4-----4-----------4--|
|---4-----------------4----------------|
|-2-----------------0------------------|
|--------------------------------------|


Both Gtrs
play twice
|-------------2-----------------2------|
|-------2-2h3---3---------2-2h3---3----|
|-----4-----------4-----4-----------4--|
|---4-----------------4----------------|
|-2-----------------0------------------|
|--------------------------------------|


Gtr 3
|-----------------------------------------------------------------------|
|-----------------14--14h15--14-----------------------------------------|
|-14S16--------------------------16--14S16-14---12--11--9----7------7---|
|--------------------------------------------------------------7--------|
|-----------------------------------------------------------------------|
|-----------------------------------------------------------------------|


Both Gtrs
play twice
|-------------2-----------------2-----------0-2-0h2p0--------------------------|
|-------2-2h3---3---------2-2h3---3-------3-----------3---------2-3-2h3p2------|
|-----4-----------4-----4-----------4---2---------------2-----2-----------4-2--|
|---4-----------------4---------------0---------------------2------------------|
|-2-----------------0-------------------------------------0--------------------|
|------------------------------------------------------------------------------|


Gtr 3
|-------------------------|
|------------2--3--3S5----|
|-2h4---------------------|
|-------------------------|
|-------------------------|
|-------------------------|


|----------------------------|
|-3---------5S7--5---3--2----|
|----------------------------|
|----------------------------|
|----------------------------|
|----------------------------|


Gtr 3
|-------------------------|
|------------2--3--3S5----|
|-2h4---------------------|
|-------------------------|
|-------------------------|
|-------------------------|


|----------------------------|
|-3---------5S7--5---3--2----|
|----------------------------|
|----------------------------|
|----------------------------|
|----------------------------|


Gtr 4
|--------------------------|
|------------5--7--7S10----|
|-6h7----------------------|
|--------------------------|
|--------------------------|
|--------------------------|


|------------------------------|
|-7--------10S12--10---7--5----|
|------------------------------|
|------------------------------|
|------------------------------|
|------------------------------|


Both Gtrs
|-------3-----2---------3-----2---------0-----2---------0-----2------|
|-----3---3-----3-----3---3-----3-----3---3-----3-----3---3-----3----|
|---0-------0-------0-------0-------2-------2-------2-------2--------|
|---------------------------------0---------------0------------------|
|-2---------------3--------------------------------------------------|
|--------------------------------------------------------------------|


|-------3-----2---------3-----2---------0-----2---------3---2h3p2---|
|-----3---3-----3-----3---3-----3-----3---3-----3-----3---3---------|
|---0-------0-------0-------0-------2-------2-------2---------------|
|---------------------------------0---------------0-----------------|
|-2---------------3-------------------------------------------------|
|-------------------------------------------------------------------|


Gtr 3
|-------5-----5---------5-----5---------5-----5---------5-----5------|
|-----3---3-----3-----3---3-----3-----3---3-----3-----3---3-----3----|
|---0-------0-------0-------0-------2-------2-------2-------2--------|
|---------------------------------0---------------0------------------|
|-2---------------3--------------------------------------------------|
|--------------------------------------------------------------------|


|---------------------------------------5-----5---------5-----5----|
|-------3-----3---------3-----3-------3---3-----3-----3---3-----3--|
|-----0---0-----0-----0---0-----0---2-------2-------2-------2------|
|---5-------5-------5-------5-----0---------------0----------------|
|-2---------------3------------------------------------------------|
|------------------------------------------------------------------|


Both Gtrs
|-------3-----2---------3-----2----|
|-----3---3-----3-----3---3-----3--|
|---0-------0-------0-------0------|
|----------------------------------|
|-2---------------3----------------|
|----------------------------------|


Both Gtrs
|---------------------------------------2-----2---5----3----2---------|
|-------3-----2---------3-----5-----------5-----5-5--------------3S5--|
|-----2---2-----2-----2---2-----2-----2-----2-----2-------------------|
|---2-------2-------2-------2-------2---------------------------------|
|-0---------------0---------------0-----------------------------------|
|---------------------------------------------------------------------|


Gtr 3
|-----------------------------------|
|-------5-----5---------5-----5-----|
|-----2---2-----2-----2---2-----2---|
|---2-------2-------2-------2-------|
|-0---------------0-----------------|
|-----------------------------------|


Gtr 4
|--------7---------------7----------|
|-----10----10--------10----10------|
|---9----------9----9----------9----|
|-----------------------------------|
|-0---------------0-----------------|
|-----------------------------------|


Gtr 3
|-----5----|
|-3-2------|
|-4--------|
|-2--------|
|-0--------|
|----------|


Both Gtrs
|-------------2----|
|-------2-2h3------|
|-----4------------|
|---4--------------|
|-2----------------|
|------------------|


Gtr 3
|----------------------------------|
|----------------------------------|
|-----------7---9--9--7--6---------|
|-------------7-------------7--/9--|
|-----5-7S9------------------------|
|-5-7------------------------------|


Gtr 4
|---14---------|
|---15---------|
|---16----7----|
|---16----9----|
|---14---------|
|--------------|


Tablature Legend
----------------
 h   - hammer-on
 p   - pull-off
 b   - bend
 pb  - pre-bend
 r   - bend release (if no number after the r, then release immediately)
 /\  - slide into or out of (from/to "nowhere")
 s   - legato slide
 S   - shift slide
  - natural harmonic
[n]  - artificial harmonic
n(n) - tapped harmonic
 ~   - vibrato
 tr  - trill
 T   - tap
 TP  - trem. picking
 PM  - palm muting
\n/  - tremolo bar dip; n = amount to dip
 \n  - tremolo bar down
 n/  - tremolo bar up
/n\  - tremolo bar inverted dip
 =   - hold bend; also acts as connecting device for hammers/pulls
 <>  - volume swell (louder/softer)
 x   - on rhythm slash represents muted slash
 o   - on rhythm slash represents single note slash

Misc Legend
-----------
 |  - bar
||  - double bar
||o - repeat start
o|| - repeat end
*|  - double bar (ending)
 :  - bar (freetime)
 $  - Segno
 &  - Coda
Tempo markers -  = BPM(8/16=s8/s16), where s8 = swing 8ths, s16 = swing 16ths
Добавлено: 03.04.2012
Другие материалы по этой песне:

Страница создана 03.04.2012
http://primanota.ru/annihilator/mending-chords.htm
Привет, Гость.
Предлагаем пройти революционный курс по гитаре.
Подарок от PrimaNota.Ru, забирай!