PrimaNota.ru - самый крупный в мире бесплатный архив песенных текстов, аккордов, табулатур и нот


Annihilator - I Am In Command - аккорды и текст, таба, видео

Регистрация Запомнить меня
Войти через:  Facebook Google Twitter Vk Yandex Mail.ru

Annihilator - I Am In Command - аккорды и текст, таба, видео

Печатать
Просмотров: 158
Авторы музыки: Jeff Waters
Авторы текста: Jeff Waters
I Am In Command
Annihilator
================================================================================
         Title : I am in command
        Artist : Annihilator
         Album : Never Neverland
Transcribed by : By DimeBolt (dime_bolt@email.com)
================================================================================

Legend
------

 p  = pull-off
 /  = slide up/down
 ~  = vibrato
_3_ = Triplet

Standard Tuning (E,A,D,G,B,E)

   Intro
1||-----------------|-----------------|------------------|-----------------|
2||-----------------|-----------------|------------------|-----------------|
3||-----------------|-----------------|------------------|-----------------|
4||-----------------|-----------------|------------------|-3-----3-----3---|
5||-----------------|-----------------|------------------|-1-----1-----1---|
6||-000000000-0-----|-0000000000------|-00000000000012--|---0-0---0-0-----|


1||-----------------|-----------------|------------------|-------------------|
2||-----------------|-----------------|------------------|----------------11-|
3||-----------------|-----------------|------------------|-------------10----|
4||-------------5---|-------------3---|------------------|-3-----3---8-------|
5||-------------3---|-------------1---|------------------|-1-----1-----------|
6||-000000000000----|-000000000000----|-00000000000012--|---0-0---0---------|


1||-----------------|-----------------|-----------------|-----------------||
2||-----------------|-----------------|-----------------|-----------------||
3||-----------------|-----------------|-----------------|-----------------||
4||-------------7---|-------------5---|-------------4---|-3-----3-----3/--||
5||-------------5---|-------------3---|-------------2---|-1-----1-----1/--||
6||-0-0-0-2-3-0-5---|-------------3---|-----------------|---0-0---0-0-----||


1||-----------------|-----------------|-----------------|-----------------|
2||-----------------|-----------------|-----------------|-----------------|
3||-----------------|-----------------|-----------------|-----------------|
4||-------------7--|-------------5--|-------------4---|-3-----3-----3/--|
5||-------------5--|-------------3--|-------------2---|-1-----1-----1/--|
6||-0-0-0-2-3-0-----|-0-0-0-2-3-0-----|-0-0-0-2-3-0-----|---0-0---0-0-----|


1||-----------------|-----------------|-----------------|-----------------||
2||-----------------|-----------------|-----------------|-----------------||
3||-----------------|-----------------|-----------------|-----------------||
4||-------------7--|-------------5--|-------------4---|-3-----3-----3---||
5||-------------5--|-------------3--|-------------2---|-1p0---1p0---1---||
6||-0-0-0-2-3-0-----|-0-0-0-2-3-0-----|-0-000-2-3-0---0-|-----0-----0-----||

                   Slower                               Main Riff
1||---------------|-----------------|-----------------||----------------------||
2||---------------|-----------------|-----------------||----------------------||
3||---------------|-----------------|-----------------||----------------------||
4||---------------|-3---3---3-------|-3---3---3-------||----------------------||
5||-2-------------|-1p0-1p0-1-------|-1p0-1p0-1-------||-----------3p2--2p1p0-||
6||-0-------------|----0---0--------|----0---0--------||-3003003000---00------||


1||------------------------|---------------------||
2||------------------------|---------------------||
3||------------------------|---------------------||
4||--7/9-9/10-7-7/9-9/10-7-|--7/9-9/10-7---------||
5||--5/7-7/-8-5-5/7-7/-8-5-|--5/7-7/-8-5-8-------||
6||-0---0----0-0---0----0--|-0---0----0-06--03/--||

   Verse
1||----------------------|--------------------||
2||----------------------|--------------------||
3||----------------------|--------------------||
4||--9--9/10---9--9/10---|--9--9/10-----------||
5||--7--7/-8---7--7/-8---|--7--7/-8---8-------||
6||-0-00----000-00----00-|-0-00----0006--03/--||

   Chorus             1st ending          2nd ending          3rd ending
1||-----------------||------------------||------------------||------------------||
2||-----------------||------------------||------------------||------------------||
3||-----------------||------------------||------------------||------------------||
4||---------------7-||------------------||------------------||------------------||
5||-5-----5-3--2--5-||------------------||-------------_3_--||-----577775-5-----||
6||-3-----3-1--0----||-0-00000000000000-||-0000000000000000-||-0057------7-7650-||

   Solo
1||-----------------|------------------|------------------|-----------------|
2||-----------------|------------------|------------------|-----------------|
3||-----------------|------------------|------------------|-----------------|
4||-----------------|------------------|------------------|-------------7---|
5||-2---------------|-2-----------14--|-2222222222222222-|-2222222222225---|
6||-0---------------|-0----------------|------------------|-----------------|


1||------------------|------------------|------------------|-----------------|
2||------------------|------------------|------------------|-----------------|
3||------------------|------------------|------------------|-----------------|
4||------------------|------------------|------------------|-------------10--|
5||-2222222222222222-|-222222222200-----|------------------|--------------8--|
6||------------------|-------------3311-|-0000000000000000-|-000000000000----|


1||------------------|-----------------|------------------|------------------|
2||------------------|-----------------|------------------|------------------|
3||------------------|-----------------|------------------|------------------|
4||------------------|-------------7---|---------------7--|------------------|
5||-2222222222222222-|-2222222222225---|-5-------3--2--5--|------------------|
6||------------------|-----------------|-3-------1--0-----|-0-00000000000000-|


1||------------------|------------------|------------------|------------------|
2||------------------|------------------|------------------|------------------|
3||------------------|------------------|------------------|------------------|
4||---------------7--|------------------|---------------7--|------------------|
5||-5-------3--2--5--|---------2--2--2--|-5-------3--2--5--|-----577775-5-----|
6||-3-------1--0-----|-000000000--0--0--|-3-------1--0-----|-0057------7-7650-|

                       Outro
1||------------------||------------------|------------------|------------------|
2||------------------||------------------|------------------|------------------|
3||------------------||------------------|------------------|------------------|
4||---------------7--||------------------|------------------|------------------|
5||-5-------3--2--5--||-2----------------|------------------|------------------|
6||-3-------1--0-----||-0-----------15--|-3000000030000000-|-3000000030303000-|


1||------------------|------------------||------------------||-------------------||
2||------------------|------------------||------------------||-------------8--8--||
3||------------------|------------------||------------------||-------------9--9--||
4||------------------|------------------||------------------||-----3~------9--9--||
5||------------------|------------------||------------------||-------------7--7--||
6||-3000000030000000-|-3000000030006530-||-3000653030006530-||-1~----------------||
Добавлено: 17.07.2012
Другие материалы по этой песне:

Страница создана 21.03.2012
http://primanota.ru/annihilator/i-am-in-command-chords.htm
Привет, Гость.
Предлагаем пройти революционный курс по гитаре.
Подарок от PrimaNota.Ru, забирай!