PrimaNota.ru - самый крупный в мире бесплатный архив песенных текстов, аккордов, табулатур и нот


Annihilator - Anything For Money - текст песни, таба, видео

Регистрация Запомнить меня
Войти через:  Facebook Google Twitter Vk Yandex Mail.ru

Annihilator - Anything For Money - текст песни, таба, видео

Печатать
Просмотров: 176
Авторы музыки: Jeff Waters, Randy Black
Авторы текста: Jeff Waters
Annihilator - Anything For Money

tabbed by ol753
www.annihilatormetal.com
ol753_357lo@yahoo.co.uk

Tuning - E A D G B E


Gtr 1
play twice
|-------------------------------------------------------------|
|-------------------------------------------------------------|
|-------------------------------------------------------------|
|-2-2-2-5--5-5--------6S7-7-7---2-2-2-5--5-5--------6S7--7----|
|-0-0-0-3--3-3-5--5-5-4S5-5-5-0-0-0-0-3--3-3-5--5-5-4S5--5----|
|--------------3--3-3------------------------3--3-3-----------|


Gtr 1
|-------------------------------------------------------------|
|-------------------------------------------------------------|
|-------------------------------------------------------------|
|-2-2-2-5--5-5--------6S7-7-7---2-2-2-5--5-5--------6S7--7----|
|-0-0-0-3--3-3-5--5-5-4S5-5-5-0-0-0-0-3--3-3-5--5-5-4S5--5----|
|--------------3--3-3------------------------3--3-3-----------|


|-----------------------------------------------------------|
|-----------------------------------------------------------|
|-----------------------------------------------------------|
|-2-2-2-5--5-5--------6S7-7-7---2-2-2-5--5-5--------6-7-----|
|-0-0-0-3--3-3-5--5-5-4S5-5-5-0-0-0-0-3--3-3-5--5-5-4-5-----|
|--------------3--3-3------------------------3--3-3---------|


Gtr 2
  PM--------------------------------------------------------------------------------------------|
|---------------------------------------------------------------------------------------------------|
|---------------------------------------------------------------------------------------------------|
|---------------------------------------------------------------------------------------------------|
|---------------------------------------------------------------------------------------------------|
|-0-0-0-0-0-0-0-0-0-0-0-0-0-0-0-0-0-0-0-0-0-0-0-0-0-0-0-0-0-0-0-0-0-0-0-0-0-0-0-0-0-0-0-0-0-0-0-0---|
|---------------------------------------------------------------------------------------------------|

  PM----------|
|----------------------------|
|----------------------------|
|----------------------------|
|---------------------6-7----|
|-0-0-0-0-0-0-0-5--5--4-5----|
|---------------3--3---------|


Both Gtrs
play 4 times
|-------------------------------------------------------------|
|-------------------------------------------------------------|
|-------------------------------------------------------------|
|-2-2-2-5--5-5--------6S7-7-7---2-2-2-5--5-5--------6S7--7----|
|-0-0-0-3--3-3-5--5-5-4S5-5-5-0-0-0-0-3--3-3-5--5-5-4S5--5----|
|--------------3--3-3------------------------3--3-3-----------|


Gtr 3
play twice
                  PM|
|-------------------------------------------------------------|
|----------------------13p12----------------------------------|
|-12h14-14-14----------------14-12----12h14-14-14-------14\---|
|----------------12-14-------------14-------------------------|
|-------------------------------------------------------------|
|-------------------------------------------------------------|


Gtr 4
play second time
                  PM|
|-------------------------------------------------------------|
|----------------------17p15----------------------------------|
|-16h17-17-17----------------17-16----16h17-17-17-------17\---|
|----------------15-17-------------17-------------------------|
|-------------------------------------------------------------|
|-------------------------------------------------------------|


Verse
Both Gtrs
|-------------------------------------|
|-----1--------0--------1--------0----|
|-2---2----0---0----2---2--------0----|
|-2---2----0---0----3---3----0---0----|
|-0--------2---2----3---3----2---2----|
|----------3--------1--------3--------|


|-------------------------------------|
|-----1--------0--------1--------0----|
|-2---2----0---0----2---2--------0----|
|-2---2----0---0----3---3----0---0----|
|-0--------2---2----3---3----2---2----|
|----------3--------1--------3--------|


|-----1--------0------------------|
|-3---3----1---1--------3----5----|
|-2---2----0---0----3---3----5----|
|-0---0----2---2----3---3----5----|
|-0--------3--------1--------3----|
|---------------------------------|


|--------------------------------0----|
|-----1--------0-----------------0----|
|-2---2--------0-----------------1----|
|-2---2----0---0-----------------2----|
|-0---0----2---2----3---3S5---3--2----|
|----------3--------1---1S3---1--0----|


Chorus
Both Gtrs
|-------------------------------------------------------------|
|-------------------------------------------------------------|
|-------------------------------------------------------------|
|-2-2-2-5--5-5--------6S7-7-7---2-2-2-5--5-5--------6S7--7----|
|-0-0-0-3--3-3-5--5-5-4S5-5-5-0-0-0-0-3--3-3-5--5-5-4S5--5----|
|--------------3--3-3------------------------3--3-3-----------|


|-----------------------------------------------------------|
|-----------------------------------------------------------|
|-----------------------------------------------------------|
|-2-2-2-5--5-5--------6S7-7-7---2-2-2-5--5-5--------6S7-----|
|-0-0-0-3--3-3-5--5-5-4S5-5-5-0-0-0-0-3--3-3-5--5-5-4S5-----|
|--------------3--3-3------------------------3--3-3---------|


Repeat Verse
Repeat Chorus twice


Both Gtrs
play twice
  PM--|    PM------|    PM------|    PM------|
|---------------------------------------------------|
|---------------------------------------------------|
|---------------------------------------------------|
|---------------------------------------------------|
|-2-2-2-5--2-2-3-3-3-6--3-3-4-4-4-7--4-4-5-5-5-8----|
|------------------------------------------------\--|


Gtr 1
  PM--|    PM------|    PM------|    PM------|
|---------------------------------------------------|
|---------------------------------------------------|
|---------------------------------------------------|
|---------------------------------------------------|
|-2-2-2-5--2-2-3-3-3-6--3-3-4-4-4-7--4-4-5-5-5-8----|
|------------------------------------------------\--|


  PM--|    PM------|    PM------|
|--------------------------------------------------|
|--------------------------------------------------|
|--------------------------------------------------|
|--------------------------------------------------|
|-2-2-2-5--2-2-3-3-3-6--3-3-4-4-4-7---9--8--7--5---|
|-------------------------------------7--6--5--3---|


Gtr 2
  PM--|    PM------|     PM------|     PM------|
|------------------------------------------------------|
|------------------------------------------------------|
|------------------------------------------------------|
|------------------------------------------------------|
|-5-5-5-9--5-5-6-6-6-10--6-6-7-7-7-11--7-7-8-8-8-12----|
|------------------------------------------------------|


  PM--|    PM------|     PM------|
|---------------------------------------------------|
|---------------------------------------------------|
|---------------------------------------------------|
|---------------------------------------------------|
|-5-5-5-9--5-5-6-6-6-10--6-6-7-7-7-11--9--8--7--5---|
|--------------------------------------7--6--5--3---|


Both Gtrs
play 4 times, Gtr 3 Lead (to be added)
  PM--|      PM------|      PM------|      PM----|           PM
|-----------------------------------------------------------------|
|-----------------------------------------------------------------|
|-------2--2-----------2--2-----------2--2------------------------|
|-------2--2-----------2--2-----------2--2---------4S5S4----------|
|-------0--0-----------0--0-----------0--0---------2S3S2p0-4------|
|-2-0-2------2-0-2-0-2------2-0-2-0-2------2-0-2-0---------2-0----|


Both Gtrs
play 3 times
    PM|      PM|   PM  PM  PM--|
|-----------------------------------|
|-----------------------------------|
|-2-----2--2-----2---4---2----------|
|-2-----2--2-----2---4---2----------|
|-----------------------------------|
|---2-2------2-2---2---2---2-2-2----|


4th time
    PM|     PM--|   PM  PM  PM--|
|------------------------------------|
|------------------------------------|
|-2-----2---------2---4---2----------|
|-2-----2---------2---4---2----------|
|------------------------------------|
|---2-2-----2-0-2---2---2---2-2-2----|


play 3 times
    PM|      PM|   PM  PM  PM--|
|-----------------------------------|
|-----------------------------------|
|-2-----2--2-----2---4---2----------|
|-2-----2--2-----2---4---2----------|
|-----------------------------------|
|---2-2------2-2---2---2---2-2-2----|


4th time
    PM|     PM--|   PM  PM  PM--|
|------------------------------------|
|------------------------------------|
|-2-----2---------2---4---2----------|
|-2-----2---------2---4---2----------|
|------------------------------------|
|---2-2-----2-0-2---2---2---2-2-2----|


Both Gtrs
    PM|      PM--------------|   PM|    PM--------------|
|------------------------------------------------------------|
|------------------------------------------------------------|
|-4-----4--4-------------------4-----4--4---------------4----|
|-4-----4--4-------------------4-----4--4---------------4----|
|------------------------------------------------------------|
|---4-4------4-4-4-4-4-4-4-4-4---4-4------4-4-4-4-4-4-4------|


    PM|      PM------------|       PM|                PM|
|------------------------------------------------------------|
|------------------------------------------------------------|
|-5-----5--5---------------------7-----7--7------------------|
|-5-----5--5---------------------7-----7--7------------------|
|--------------------------------------------9--8--7---------|
|---5-5------5-5-5-5-5-5-5-5-5S7---7-7-------7--6--5--0-2----|


Both Gtrs
play 3 times
    PM|      PM|   PM  PM  PM--|
|-----------------------------------|
|-----------------------------------|
|-2-----2--2-----2---4---2----------|
|-2-----2--2-----2---4---2----------|
|-----------------------------------|
|---2-2------2-2---2---2---2-2-2----|


4th time
    PM|
|-----------------|
|-----------------|
|-2-----2--2------|
|-2-----2--2------|
|-----------------|
|---2-2------2----|


Both Gtrs
play 7 times
     PM   PM-|    PM   PM--|
|-------------------------------|
|-------------------------------|
|-------------------------------|
|-4-----4------4-----4----------|
|-------------------------------|
|----2----2--2----2----2-0-2----|


8th time
     PM   PM-|
|---------------------------|
|---------------------------|
|---------------------------|
|-4-----4------4--4----4----|
|---------------------------|
|----2----2--2-------2------|


Gtr 3
play 7 times
         PM   PM    PM   PM
|----------------------------------|
|----------------------------------|
|----11----9----12----9----9h11----|
|----------------------------------|
|-9------9----9-----9----9---------|
|----------------------------------|


8th time
         PM   PM
|-------------------------------|
|-------------------------------|
|----11----9----11--11----11----|
|-------------------------------|
|-9------9----9---------9-------|
|-------------------------------|


Repeat Verse
Repeat Chorus twice


Both Gtrs
play twice
  PM--|    PM------|    PM------|    PM------|
|---------------------------------------------------|
|---------------------------------------------------|
|---------------------------------------------------|
|---------------------------------------------------|
|-2-2-2-5--2-2-3-3-3-6--3-3-4-4-4-7--4-4-5-5-5-8----|
|------------------------------------------------\--|

Gtr 1
  PM--|    PM------|    PM------|    PM------|
|--------------------------------------------------|
|--------------------------------------------------|
|--------------------------------------------------|
|--------------------------------------------------|
|-2-2-2-5--2-2-3-3-3-6--3-3-4-4-4-7--4-4-5-5-5-8---|
|--------------------------------------------------|

  PM----|    PM|     PM|     PM|
|---------------------------------------------------------------------------|
|---------------------------------------------------------------------------|
|---------------------------------------------------------------------------|
|---------------------------------------------------------------------------|
|-5-5-6-6-9--7-7-10--8-8-11--9-9-12--10-13-11-14-12-15-13-16-14-17-15-18----|
|---------------------------------------------------------------------------|


Gtr 2
  PM--|    PM------|     PM------|     PM------|
|------------------------------------------------------|
|------------------------------------------------------|
|------------------------------------------------------|
|------------------------------------------------------|
|-5-5-5-9--5-5-6-6-6-10--6-6-7-7-7-11--7-7-8-8-8-12----|
|------------------------------------------------------|

  PM----|      PM|       PM|       PM|
|----------------------------------------------------------------------------------|
|----------------------------------------------------------------------------------|
|----------------------------------------------------------------------------------|
|----------------------------------------------------------------------------------|
|-8-8-9-9-13--10-10-14--11-11-15--12-12-16--13-17-14-18-15-19-16-20-17-21-18-22----|
|----------------------------------------------------------------------------------|


Tablature Legend
----------------
 h   - hammer-on
 p   - pull-off
 b   - bend
 pb  - pre-bend
 r   - bend release (if no number after the r, then release immediately)
 /\  - slide into or out of (from/to "nowhere")
 s   - legato slide
 S   - shift slide
  - natural harmonic
[n]  - artificial harmonic
n(n) - tapped harmonic
 ~   - vibrato
 tr  - trill
 T   - tap
 TP  - trem. picking
 PM  - palm muting
\n/  - tremolo bar dip; n = amount to dip
 \n  - tremolo bar down
 n/  - tremolo bar up
/n\  - tremolo bar inverted dip
 =   - hold bend; also acts as connecting device for hammers/pulls
 <>  - volume swell (louder/softer)
 x   - on rhythm slash represents muted slash
 o   - on rhythm slash represents single note slash

Misc Legend
-----------
 |  - bar
||  - double bar
||o - repeat start
o|| - repeat end
*|  - double bar (ending)
 :  - bar (freetime)
 $  - Segno
 &  - Coda
Tempo markers -  = BPM(8/16=s8/s16), where s8 = swing 8ths, s16 = swing 16ths
Добавлено: 09.09.2013
Другие материалы по этой песне:
  • Аккорды и текст

Страница создана 07.06.2012
http://primanota.ru/annihilator/anything-for-money-chords.htm
Привет, Гость.
Предлагаем пройти революционный курс по гитаре.
Подарок от PrimaNota.Ru, забирай!