PrimaNota.ru - самый крупный в мире бесплатный архив песенных текстов, аккордов, табулатур и нот


Annihilator - A Man Called Nothing - текст песни, таба, видео

Регистрация Запомнить меня
Войти через:  Facebook Google Twitter Vk Yandex Mail.ru

Annihilator - A Man Called Nothing - текст песни, таба, видео

Печатать
Просмотров: 206
Авторы музыки: Jeff Waters, Randy Black
Авторы текста: Big John Bates, Jeff Waters
Annihilator - A Man Called Nothing

tabbed by 
ol753_357lo@yahoo.co.uk

Tuning - E A D G B E


Both Gtrs
play 4 times
|--------------------------------------------7---------|
|-------------------------------2h3--------9---9-------|
|-------2-----------2---------4-----4---10-------10----|
|-----6---6-------6---6-----4---------0----------------|
|---4-------4---4-------4-2----------------------------|
|-2-----------0----------------------------------------|


Gtr 3
play twice
|-------------------------------------|
|-9h10----9-10------------------------|
|--------------9S11--9----------------|
|--------------------------11-11S9----|
|-------------------------------------|
|-------------------------------------|


|--------------------------------------------------|
|-9h10----9-10-------------------------------------|
|--------------9S11--9------------------7-----10---|
|--------------------------11-11S9-----------------|
|--------------------------------------------------|
|--------------------------------------------------|


|-------------------------------------|
|-9h10----9-10------------------------|
|--------------9S11--9----------------|
|--------------------------11-11S9----|
|-------------------------------------|
|-------------------------------------|


|--------------------------------------------------------|
|-9h10----9-10-------------------------------------------|
|--------------9S11--9------------------7----10---10h11--|
|--------------------------11-11S9-----------------------|
|--------------------------------------------------------|
|--------------------------------------------------------|


Gtr 4, joins halfway
|------------------------------------------|
|-12h14----12-14---------------------------|
|----------------13S14--13-----------------|
|------------------------------14-14S12----|
|------------------------------------------|
|------------------------------------------|


|-------------------------------------------------------------|
|-12h14----12-14----------------------------------------------|
|----------------13S14--13-------------------10---13---13h14--|
|------------------------------14-14S12-----------------------|
|-------------------------------------------------------------|
|-------------------------------------------------------------|


Both Gtrs
play 3 times
|--------------------------------------------7---------|
|-------------------------------2h3--------9---9-------|
|-------2-----------2---------4-----4---10-------10----|
|-----6---6-------6---6-----4---------0----------------|
|---4-------4---4-------4-2----------------------------|
|-2-----------0----------------------------------------|


Both Gtrs
|-------0h2-----------------------------------------|
|-----3-----3---------------------------------------|
|---2---------------1h2--------2-----------2--------|
|-0---------------2----------6---6-------6---6------|
|---------------2----------4-------4---4-------4----|
|-------------0----------2-----------2--------------|


|-------0h2----------------|
|-----3-----3--------------|
|---2---------------1h2----|
|-0---------------2--------|
|---------------2----------|
|-------------0------------|


Gtr 3
|-------0-------------0---------0----------0----|
|-----7---7--------12-----10---------10---------|
|---7-------7---13-----------13---------13------|
|-0---------------------------------------------|
|-----------------------------------------------|
|-------------0---------------------------------|


|-------0-------------0----|
|-----7---7--------12------|
|---7-------7---13---------|
|-0------------------------|
|--------------------------|
|-------------0------------|


Gtr 4
|---------------------------|
|---------------------------|
|------------------6h7p6----|
|-7------9----6-------------|
|---------------------------|
|---------------------------|


|-------------|
|-------------|
|-------------|
|-7-----/9----|
|-------------|
|-------------|


Both Gtrs
play 2 times
|--------------------------------------------7---------|
|-------------------------------2h3--------9---9-------|
|-------2-----------2---------4-----4---10-------10----|
|-----6---6-------6---6-----4---------0----------------|
|---4-------4---4-------4-2----------------------------|
|-2-----------0----------------------------------------|


Both Gtrs
|--------7-------------7-------7----|
|------9---9---------9---9-----9----|
|---10-------10---10-------10-10----|
|-0-------------0--------------0----|
|-----------------------------------|
|-----------------------------------|


Gtr 3
|-------------------------------------|
|-9h10----9-10------------------------|
|--------------9S11--9----------------|
|--------------------------11-11S9----|
|-------------------------------------|
|-------------------------------------|


|--------------------------------------------------|
|-9h10----9-10-------------------------------------|
|--------------9S11--9------------------7-----10---|
|--------------------------11-11S9-----------------|
|--------------------------------------------------|
|--------------------------------------------------|


Gtr 4
|------------------------------------------|
|-12h14----12-14---------------------------|
|----------------13S14--13-----------------|
|------------------------------14-14S12----|
|------------------------------------------|
|------------------------------------------|


|-------------------------------------------------------------|
|-12h14----12-14----------------------------------------------|
|----------------13S14--13-------------------10---13---13h14--|
|------------------------------14-14S12-----------------------|
|-------------------------------------------------------------|
|-------------------------------------------------------------|


Both Gtrs, Gtr 3 Lead (to be added)
     PM  PM    PM--------------|   PM|   PM    PM|     PM
|------------------------------------------------------------------|
|------------------------------------------------------------------|
|------------------------------------------------------------------|
|-2----5---5---------------------2-----5---5-------5-----7---------|
|-0--0-3-0-3p0-0-0-0-0-0-0-0-0-0-0-0-0-3-0-3p0-0-0-3p0-0-5---------|
|-----------------------------------------------------------0-3----|


    PM|   PM    PM---------------|   PM|   PM
|--------------------------------------------------------------------|
|--------------------------------------------------------------------|
|--------------------------------------------------------------------|
|-2-----5---5----------------------2-----5---5-------------------0---|
|-0-0-0-3-0-3p0-0-0-0-00-0-0-0-0-0-0-0-0-3-0-3p0-------3-2-----2-----|
|------------------------------------------------0-0-1-----3-3-------|


Verse 1
Both Gtrs
     PM  PM    PM--------------|   PM|   PM    PM|     PM
|------------------------------------------------------------------|
|------------------------------------------------------------------|
|------------------------------------------------------------------|
|-2----5---5---------------------2-----5---5-------5-----7---------|
|-0--0-3-0-3p0-0-0-0-0-0-0-0-0-0-0-0-0-3-0-3p0-0-0-3p0-0-5---------|
|-----------------------------------------------------------0-3----|


    PM|   PM    PM---------------|   PM|   PM
|--------------------------------------------------------------------|
|--------------------------------------------------------------------|
|--------------------------------------------------------------------|
|-2-----5---5----------------------2-----5---5-------------------0---|
|-0-0-0-3-0-3p0-0-0-0-00-0-0-0-0-0-0-0-0-3-0-3p0-------3-2-----2-----|
|------------------------------------------------0-0-1-----3-3-------|


    PM|   PM    PM--------------|   PM|   PM    PM|     PM
|-------------------------------------------------------------------|
|-------------------------------------------------------------------|
|-------------------------------------------------------------------|
|-2-----5---5---------------------2-----5---5-------5-----7---------|
|-0-0-0-3-0-3p0-0-0-0-0-0-0-0-0-0-0-0-0-3-0-3p0-0-0-3p0-0-5---------|
|------------------------------------------------------------0-3----|


                PM---------------|   PM|   PM
|--------------------------------------------------------------------|
|--------------------------------------------------------------------|
|--------------------------------------------------------------------|
|-2-----5---5----------------------2-----5---5-------------------0---|
|-0-----3---3p0-0-0-0-00-0-0-0-0-0-0-0-0-3-0-3p0-------3-2-----2-----|
|------------------------------------------------0-0-1-----3-3-------|


Chorus
Gtr 1
play twice
    PM|   PM    PM|     PM                   PM  PM    PM--------------|
|---------------------------------------------------------------------------|
|-------------------------------15b17-15b17---------------------------------|
|---------------------------------------------------------------------------|
|-------9---7S9-----9S7---10-------------------9---7S9----------------------|
|-2-----7---5S7-----7S5----8-------------------7---5S7----------------------|
|-0-0-0---0-----0-0-----0-----0--------------0---0-----0-0-3-0-3-5-6-5-3----|


    PM|   PM    PM|     PM                   PM  PM    PM|
|------------------------------------------------------------------|
|-------------------------------15b17-15b17------------------------|
|------------------------------------------------------------------|
|-------9---7S9-----9S7---10-------------------9---7S9-------------|
|-2-----7---5S7-----7S5----8-------------------7---5S7-----5--6/---|
|-0-0-0---0-----0-0-----0-----0--------------0---0-----0-0-3--4/---|


Gtr 2
play twice
    PM|   PM    PM|     PM                   PM  PM    PM--------------|
|---------------------------------------------------------------------------|
|-------------------------------19b20-19b20---------------------------------|
|---------------------------------------------------------------------------|
|-------9---7S9-----9S7---10-------------------9---7S9----------------------|
|-2-----7---5S7-----7S5----8-------------------7---5S7----------------------|
|-0-0-0---0-----0-0-----0-----0--------------0---0-----0-0-3-0-3-5-6-5-3----|


    PM|   PM    PM|     PM                   PM  PM    PM|
|------------------------------------------------------------------|
|-------------------------------19b20-19b20------------------------|
|------------------------------------------------------------------|
|-------9---7S9-----9S7---10-------------------9---7S9-------------|
|-2-----7---5S7-----7S5----8-------------------7---5S7-----5--6/---|
|-0-0-0---0-----0-0-----0-----0--------------0---0-----0-0-3--4/---|



Both Gtrs, Gtr 3 Lead (to be added)
     PM  PM    PM--------------|   PM|   PM    PM|     PM
|------------------------------------------------------------------|
|------------------------------------------------------------------|
|------------------------------------------------------------------|
|-2----5---5---------------------2-----5---5-------5-----7---------|
|-0--0-3-0-3p0-0-0-0-0-0-0-0-0-0-0-0-0-3-0-3p0-0-0-3p0-0-5---------|
|-----------------------------------------------------------0-3----|


    PM|   PM    PM---------------|   PM|   PM
|--------------------------------------------------------------------|
|--------------------------------------------------------------------|
|--------------------------------------------------------------------|
|-2-----5---5----------------------2-----5---5-------------------0---|
|-0-0-0-3-0-3p0-0-0-0-00-0-0-0-0-0-0-0-0-3-0-3p0-------3-2-----2-----|
|------------------------------------------------0-0-1-----3-3-------|


Verse 2
Both Gtrs
     PM  PM    PM--------------|   PM|   PM    PM|     PM
|------------------------------------------------------------------|
|------------------------------------------------------------------|
|------------------------------------------------------------------|
|-2----5---5---------------------2-----5---5-------5-----7---------|
|-0--0-3-0-3p0-0-0-0-0-0-0-0-0-0-0-0-0-3-0-3p0-0-0-3p0-0-5---------|
|-----------------------------------------------------------0-3----|


                PM---------------|   PM|   PM
|--------------------------------------------------------------------|
|--------------------------------------------------------------------|
|--------------------------------------------------------------------|
|-2-----5---5----------------------2-----5---5-------------------0---|
|-0-----3---3p0-0-0-0-00-0-0-0-0-0-0-0-0-3-0-3p0-------3-2-----2-----|
|------------------------------------------------0-0-1-----3-3-------|


Repeat Chorus


Both Gtrs, Gtr 3 Lead (to be added)
     PM  PM    PM--------------|   PM|   PM    PM|     PM
|------------------------------------------------------------------|
|------------------------------------------------------------------|
|------------------------------------------------------------------|
|-2----5---5---------------------2-----5---5-------5-----7---------|
|-0--0-3-0-3p0-0-0-0-0-0-0-0-0-0-0-0-0-3-0-3p0-0-0-3p0-0-5---------|
|-----------------------------------------------------------0-3----|


    PM|   PM    PM---------------|   PM|   PM
|--------------------------------------------------------------------|
|--------------------------------------------------------------------|
|--------------------------------------------------------------------|
|-2-----5---5----------------------2-----5---5-------------------0---|
|-0-0-0-3-0-3p0-0-0-0-00-0-0-0-0-0-0-0-0-3-0-3p0-------3-2-----2-----|
|------------------------------------------------0-0-1-----3-3-------|


Gtr 1
|------------------------------------------0----|
|------------------------------------------0----|
|-4--7--6--10--9--7--6S7--3S4--6--7--10S9-------|
|-----------------------------------------------|
|-2--5--4---8--7--5--4S5--1S2--4--5---8S7-------|
|-----------------------------------------------|


|------------------------------------------0---0----|
|------------------------------------------0---0----|
|-4--6--7--10--9--7--6S7--3S4--6--7--10S9-----------|
|---------------------------------------------------|
|-2--4--5---8--7--5--4S5--1S2--4--5---8S7-----------|
|---------------------------------------------------|


|------------------------------------------0----|
|------------------------------------------0----|
|-4--6--7--10--9--7--6S7--3S4--6--7--10S9-------|
|-----------------------------------------------|
|-2--4--5---8--7--5--4S5--1S2--4--5---8S7-------|
|-----------------------------------------------|


|------------------------------------------0---0----|
|------------------------------------------0---0----|
|-4--6--7--10--9--7--6S7--3S4--6--7--10S9-----------|
|---------------------------------------------------|
|-2--4--5---8--7--5--4S5--1S2--4--5---8S7-----------|
|---------------------------------------------------|


Gtr 1
|------------------------------------------0----|
|------------------------------------------0----|
|-4--6--7--10--9--7--6S7--3S4--6--7--10S9-------|
|-----------------------------------------------|
|-2--4--5---8--7--5--4S5--1S2--4--5---8S7-------|
|-----------------------------------------------|


|------------------------------------------0---0----|
|------------------------------------------0---0----|
|-4--6--7--10--9--7--6S7--3S4--6--7--10S9-----------|
|---------------------------------------------------|
|-2--4--5---8--7--5--4S5--1S2--4--5---8S7-----------|
|---------------------------------------------------|


Gtr 2
play twice
|-------------------------------------------|
|----------6--5----------------------6p5----|
|-4--6--7--------7--6h7---3h4--6--7---------|
|-------------------------------------------|
|-------------------------------------------|
|-------------------------------------------|


Both Gtrs
|----------|
|----------|
|-----9\---|
|-----9\---|
|-2---7\---|
|-0---0----|


Gtr 1
play 6 times
  PM|         PM--------|         PM--------|         PM--|   PM|   PM
|-----15------------------15------------------15-----------------------------|
|-----18b20\--------------18b20\--------------18b20\-------------------------|
|----------------------------------------------------------------------------|
|----------------------------------------------------------------------------|
|-----------------------------------------------------------2-----5---7-8----|
|-0-0---------0-0-0-0-0-0---------0-0-0-0-0-0---------0-0-0-0-0-0-3-0-5-6----|


Gtr 2
play 6 times
  PM--------|         PM--------|         PM----------|   PM|   PM
|-------------12------------------12-------------------------------------|
|-------------15b17\--------------15b17\---------------------------------|
|------------------------------------------------------------------------|
|------------------------------------------------------------------------|
|-------------------------------------------------------2-----5---7-8----|
|-0-0-0-0-0-0---------0-0-0-0-0-0---------0-0-0-0-0-0-0-0-0-0-3-0-5-6----|


Both Gtrs
|------------------|
|------------------|
|------------------|
|------------------|
|-4-5--4-5--4-5----|
|-5-6--5-6--5-6----|


Both Gtrs, Gtr 3 Lead (to be added)
      PM--------|   PM     PM|     PM----------|
|----------------------------------------------------------|
|----------------------------------------------------------|
|----------------------------------------------------------|
|----------------------------------------------------------|
|-----------------6---8-6------------------------7--8-9----|
|-6h8-8-8-8-8-6-8---8------8-8-6h8-8-8-8-8-8-8-8-5--6-7----|


      PM--------|   PM     PM|     PM----------|
|-----------------------------------------------------------|
|-----------------------------------------------------------|
|-----------------------------------------------------------|
|-----------------------------------------------------------|
|-----------------6---8-6------------------------10--9-8----|
|-6h8-8-8-8-8-6-8---8------8-8-6h8-8-8-8-8-8-8-8--8--7-6----|


      PM--------|   PM     PM|     PM----------|
|----------------------------------------------------------|
|----------------------------------------------------------|
|----------------------------------------------------------|
|----------------------------------------------------------|
|-----------------3---5-3------------------------4--5-6----|
|-3h5-5-5-5-5-3-5---5------5-5-3h5-5-5-5-5-5-5-5-2--3-4----|


      PM--------|   PM     PM|     PM----------|
|----------------------------------------------------------|
|----------------------------------------------------------|
|----------------------------------------------------------|
|----------------------------------------------------------|
|-----------------3---5-3------------------------7--8-9----|
|-3h5-5-5-5-5-3-5---5------5-5-3h5-5-5-5-5-5-5-5-5--6-7----|


      PM--------|   PM     PM|     PM----------|
|----------------------------------------------------------|
|----------------------------------------------------------|
|----------------------------------------------------------|
|----------------------------------------------------------|
|-----------------6---8-6------------------------7--8-9----|
|-6h8-8-8-8-8-6-8---8------8-8-6h8-8-8-8-8-8-8-8-5--6-7----|


      PM--------|   PM        PM|   PM|   PM|   PM|
|-----------------------------------------------------------|
|-----------------------------------------------------------|
|-----------------------------------------------------------|
|---------------------------9-----9-----9-----9-----9--9----|
|-----------------6---8-6---7-----7-----7-----7-----7--7----|
|-6h8-8-8-8-8-6-8---8---------0-0---0-0---0-0---0-0---------|


|-------------------------------------|
|-------------------------------------|
|---------------2---------0-----------|
|-5-------------2---------0------0----|
|-3-------------0---------2------0----|
|-------------------------3------2----|


Gtr 1
play 4 times
  PM|         PM--------|         PM--------|         PM--|   PM|   PM
|-----15------------------15------------------15-----------------------------|
|-----18b20\--------------18b20\--------------18b20\-------------------------|
|----------------------------------------------------------------------------|
|----------------------------------------------------------------------------|
|-----------------------------------------------------------2-----5---7-8----|
|-0-0---------0-0-0-0-0-0---------0-0-0-0-0-0---------0-0-0-0-0-0-3-0-5-6----|


Gtr 2
play 4 times
  PM--------|         PM--------|         PM----------|   PM|   PM
|-------------12------------------12-------------------------------------|
|-------------15b17\--------------15b17\---------------------------------|
|------------------------------------------------------------------------|
|------------------------------------------------------------------------|
|-------------------------------------------------------2-----5---7-8----|
|-0-0-0-0-0-0---------0-0-0-0-0-0---------0-0-0-0-0-0-0-0-0-0-3-0-5-6----|


Both Gtrs
|------------------|
|------------------|
|------------------|
|------------------|
|-4-5--4-5--4-5----|
|-5-6--5-6--5-6----|


Repeat Verse 1
Repeat Chorus



Gtr 1
play twice
    PM|   PM    PM|     PM                   PM  PM    PM--------------|
|---------------------------------------------------------------------------|
|-------------------------------15b17-15b17---------------------------------|
|---------------------------------------------------------------------------|
|-------9---7S9-----9S7---10-------------------9---7S9----------------------|
|-2-----7---5S7-----7S5----8-------------------7---5S7----------------------|
|-0-0-0---0-----0-0-----0-----0--------------0---0-----0-0-3-0-3-5-6-5-3----|


    PM|   PM    PM|     PM                   PM  PM    PM|
|------------------------------------------------------------------|
|-------------------------------15b17-15b17------------------------|
|------------------------------------------------------------------|
|-------9---7S9-----9S7---10-------------------9---7S9-------------|
|-2-----7---5S7-----7S5----8-------------------7---5S7-----5--6/---|
|-0-0-0---0-----0-0-----0-----0--------------0---0-----0-0-3--4/---|


Gtr 2
play twice
    PM|   PM    PM|     PM                   PM  PM    PM--------------|
|---------------------------------------------------------------------------|
|-------------------------------19b20-19b20---------------------------------|
|---------------------------------------------------------------------------|
|-------9---7S9-----9S7---10-------------------9---7S9----------------------|
|-2-----7---5S7-----7S5----8-------------------7---5S7----------------------|
|-0-0-0---0-----0-0-----0-----0--------------0---0-----0-0-3-0-3-5-6-5-3----|


    PM|   PM    PM|     PM                   PM  PM    PM|
|------------------------------------------------------------------|
|-------------------------------19b20-19b20------------------------|
|------------------------------------------------------------------|
|-------9---7S9-----9S7---10-------------------9---7S9-------------|
|-2-----7---5S7-----7S5----8-------------------7---5S7-----5--6/---|
|-0-0-0---0-----0-0-----0-----0--------------0---0-----0-0-3--4/---|


Gtr 3
play twice
  PM            PM           PM          PM
|------------------------------------------------|
|------------------------------------------------|
|-9--7h9--------9--7h9-------9--7h9------9--7h9--|
|------------------------------------------------|
|------------------------------------------------|
|------------------------------------------------|


Gtr 1, Gtr 2 plays same an octave higher
|----------------------------------------------------------------|
|----------------------------------------------------------------|
|----------------------------------------------------------------|
|-------------------------5-5-------------------------5-5--------|
|-----6-6-5-5-6-6-----4-4---------6-6-5-5-6-6-----4-4-----4-4----|
|-5-5-------------3-3---------5-5-------------3-3----------------|


|--------------------------------------------------------------|
|--------------------------------------------------------------|
|--------------------------------------------------------------|
|-------------------------5-5-------------------------5-5------|
|-----6-6-5-5-6-6-----4-4---------6-6-5-5-6-6-----4-4-----4----|
|-5-5-------------3-3---------5-5-------------3-3--------------|


Both Gtrs
play twice
|--------------------------------------------7---------|
|-------------------------------2h3--------9---9-------|
|-------2-----------2---------4-----4---10-------10----|
|-----6---6-------6---6-----4---------0----------------|
|---4-------4---4-------4-2----------------------------|
|-2-----------0----------------------------------------|


Both Gtrs
|--------7-------------7-------7----|
|------9---9---------9---9-----9----|
|---10-------10---10-------10-10----|
|-0-------------0--------------0----|
|-----------------------------------|
|-----------------------------------|


Gtr 3
|-------------------------------------|
|-9h10----9-10------------------------|
|--------------9S11--9----------------|
|--------------------------11-11S9----|
|-------------------------------------|
|-------------------------------------|


|--------------------------------------------------|
|-9h10----9-10-------------------------------------|
|--------------9S11--9------------------7-----10---|
|--------------------------11-11S9-----------------|
|--------------------------------------------------|
|--------------------------------------------------|


Gtr 4
|------------------------------------------|
|-12h14----12-14---------------------------|
|----------------13S14--13-----------------|
|------------------------------14-14S12----|
|------------------------------------------|
|------------------------------------------|


|------------------------------------------------------|
|-12h14----12-14---------------------------------------|
|----------------13S14--13-------------------10---13---|
|------------------------------14-14S12----------------|
|------------------------------------------------------|
|------------------------------------------------------|


Tablature Legend
----------------
 h   - hammer-on
 p   - pull-off
 b   - bend
 pb  - pre-bend
 r   - bend release (if no number after the r, then release immediately)
 /\  - slide into or out of (from/to "nowhere")
 s   - legato slide
 S   - shift slide
  - natural harmonic
[n]  - artificial harmonic
n(n) - tapped harmonic
 ~   - vibrato
 tr  - trill
 T   - tap
 TP  - trem. picking
 PM  - palm muting
\n/  - tremolo bar dip; n = amount to dip
 \n  - tremolo bar down
 n/  - tremolo bar up
/n\  - tremolo bar inverted dip
 =   - hold bend; also acts as connecting device for hammers/pulls
 <>  - volume swell (louder/softer)
 x   - on rhythm slash represents muted slash
 o   - on rhythm slash represents single note slash

Misc Legend
-----------
 |  - bar
||  - double bar
||o - repeat start
o|| - repeat end
*|  - double bar (ending)
 :  - bar (freetime)
 $  - Segno
 &  - Coda
Tempo markers -  = BPM(8/16=s8/s16), where s8 = swing 8ths, s16 = swing 16ths
Добавлено: 20.10.2013
Другие материалы по этой песне:
  • Аккорды и текст

Страница создана 28.03.2012
http://primanota.ru/annihilator/a-man-called-nothing-chords.htm
Привет, Гость.
Предлагаем пройти революционный курс по гитаре.
Подарок от PrimaNota.Ru, забирай!