PrimaNota.ru - самый крупный в мире бесплатный архив песенных текстов, аккордов, табулатур и нот


Annie Lennox - Train In Vain - текст песни, бас-таба, видео

Регистрация Запомнить меня
Войти через:  Facebook Google Twitter Vk Yandex Mail.ru

Annie Lennox - Train In Vain - текст песни, бас-таба, видео

Печатать
Просмотров: 194
Уроки эстрадного вокала в Санкт-Петербурге
Авторы музыки: Mick Jones, Joe Strummer

I have the main parts and the jist of the song here.  The only part I'm not sure about 
the "You must explain" part.

Intro X4
G----------------------------------------------------------------------|
D----------------------------------------------------------------------|
A---6-7-7-7------------------------------------------------------------|
E----------4-7-7-7-----------------------------------------------------|
Verse 1, verse 2,

You said you loved me, and that's a fact
G----------------------------------------------------------------------|
D----------------------------------------------------------------------|
A---6-7-7-7----6-4-4-4-------------------------------------------------|
E----------------------------------------------------------------------|
But then you left me, said you felt trapped
G-----------------------------------------------------------------|
D-----------------------------------------------------------------|
A---6-7-7-7-------------------------------------------------------|
E-------------4-7-7-7---------------------------------------------|
Well some things you can explain away
G-----------------------------------------------------------------------|
D-----------------------------------------------------------------------|
A---6-7-7-7---7-6-6-6---------------------------------------------------|
E-----------------------------------------------------------------------|
But the heartache's with me til this day
G------------------------------------------------------------------|
D------------------------------------------------------------------|
A---6-5-4-4-4---6-7-7-7—---5-6-7-7---77----------------------------|
E------------------------------------------------------------------|

You must explain…      why this must be
G-----------------------------------------------------------------|
D---------- 5-----------------------------------------------------|
A---6---------3-4--------------------------7-7-7------------------|
E------------------------------------------------4-7-7-7----------|
(repeat, Did you lie....)
Добавлено: 19.06.2012
Другие материалы по этой песне:
  • Аккорды и текст

Страница создана 19.06.2012
http://primanota.ru/annie-lennox/train-in-vain-chords.htm
Привет, Гость.
Предлагаем пройти революционный курс по гитаре.
Подарок от PrimaNota.Ru, забирай!