PrimaNota.ru - самый крупный в мире бесплатный архив песенных текстов, аккордов, табулатур и нот


Anni B Sweet - A Sarcastic Hello - текст песни, таба, видео

Регистрация Запомнить меня
Войти через:  Facebook Google Twitter Vk Yandex Mail.ru

Anni B Sweet - A Sarcastic Hello - текст песни, таба, видео

Печатать
Просмотров: 198
Tony, esta cancion es para ti por aguantarme tanto y tantas veces. :)


A ver, primer detalle, Anni utiliza una cejilla en el traste 4, pero eso depende de
voz. La cancion original lleva la cejilla en el traste 4.

Las notas entre parentesis del primer riff podeis tocarlas si quereis u omitirlas, ya
vi que en algunos videos Anni roza estas notas y en otros simplemente las omite. Si sois
os sera mas facil aprender la cancion sin tocarlas, pero si le quereis dar otro sonido y 
os suena demasiado sobrecargado, podeis tocarlas. A vuestra eleccion. :)

El primer riff es algo asi:

Riff 1

e -----------------------------------------------------------------------|
B ------0----------------0----------------0---------------0----------P---|
G ------0----------------0----------------0---------------0----------A---|
D -------------------------------------------------------------------R---|
A -3--------(3)----2---------(2)-------------------------------------A---|
E -------------------------------------3--------(3)----2--------(2)------|

(x7 1/2)

I wonder why the mixture of two compounds
must have something in common,
so they can work out.
I can't get in my head,
why answers can't be questions
or questions could be answers to my insane head.
I get desesperate when I wake up in the morning
and I see a big neon that says:

Estoy practicamente segura de que la primera cuerda y la segunda no suenan, a mi al
tocandolo asi me suena bien y en el video de Anni parece que es tambien asi como la toca.
este riff dos veces como introduccion de la cancion y la segunda vez hace un mute 
con las cuerdas. Ese mute se repetira durante toda la cancion (mejor escuchad la cancion
que sepais de lo que hablo). Luego sigue tocando lo mismo (unas siete veces y media) 
la parte en que dice "and I see a big neon that say...".

A partir de ahi comienza haciendo acordes: Lam (Am) y D7 (Re7). Estos dos acordes son
para la parte en que canta “work it out!”. Pongo cimo se tocan ambos acordes por si
no lo sabe o tiene dudas:

Lam       x02210
D7        xx0212

Work it out!


Ahora hace un riff diferente al primero y que repite dos veces seguidas. Consiste en
esto:

Riff 2

e ------------------------------------------------A----|
B -------------0-------------0-------------0------C----|
G -------------0-------------0-------------0------O----|
D ------------------------------------------------R----|
A ------------------------------------------------D----|
E ------3-------------2----------------1----------E----|   (x2)

And I said good morning hello hello hello
Good morning! Hello hello hello!


De nuevo el tarareo y el comienzo del parrafo "I love to see the sunset..." se toca con
primer riff hasta el final "and took away their home".

Riff 1

I love to see the sunset while I'm sitting in my couch
and I like to see people walk by.
Everything seems to be so calm and so right.
Until turn on the news and guess what?
A hundred people dying or a heavy rain has come
and took away their home.


Otra vez los dos acordes tocados como antes... Lam (Am) y D7 (Re7).

Work it out!


Y el segundo riff:

Riff 2

e ------------------------------------------------A----|
B -------------0-------------0-------------0------C----|
G -------------0-------------0-------------0------O----|
D ------------------------------------------------R----|
A ------------------------------------------------D----|
E ------3-------------2----------------1----------E----|   (x2)

And I said good morning hello hello hello
Good morning! Hello hello hello!

Ahora hace lo mismo que en el primer riff, pero con acordes...


Riff 1

e -------------A-------------A--------------A-------------A------|
B -------------C-------------C--------------C-------------C------|
G -------------O-------------O--------------O-------------O------|
D -------------R-------------R--------------R-------------R------|
A ------3------D------2------D--------------D-------------D------|
E -------------E-------------E-------3------E------2------E------|   (x4)

Repetimos Lam (Am) y D7 (Re7) y en el final toca algo asi como:

                                                  G

e -------------A-------------A--------------------3----------|
B -------------C-------------C--------------------0----------|
G -------------O-------------O--------------------0----------|
D -------------R-------------R--------------------0----------|
A -------------D-------------D-------------2------2----------|
E ------1------E------2------E------3-------------3----------|
Добавлено: 18.07.2012
Другие материалы по этой песне:
  • Аккорды и текст

Страница создана 18.07.2012
http://primanota.ru/anni-b-sweet/a-sarcastic-hello-chords.htm
Привет, Гость.
Предлагаем пройти революционный курс по гитаре.
Подарок от PrimaNota.Ru, забирай!