PrimaNota.ru - самый крупный в мире бесплатный архив песенных текстов, аккордов, табулатур и нот


Annenmaykantereit - Nicht Nichts - аккорды и текст, видео

Регистрация Запомнить меня
Войти через:  Facebook Google Twitter Vk Yandex Mail.ru

Annenmaykantereit - Nicht Nichts - аккорды и текст, видео

Печатать
Просмотров: 359
Авторы музыки: AnnenMayKantereit
Авторы текста: Henning May
Nicht Nichts
Annenmaykantereit
Capo 3   4/4 Takt

Vorspiel:  Em, Am7, C, B7   2x

Zupfmuster ("angelehnt" an das Original)

  Em
|-----------------|-----------------|-----------0---------|
|-----------------|-----------------|-------0-------0-----|
|-----------------|-----------------|-----0-----------0---|
|---2---2---2---2-|---2---2---2---2-|---2-----2---2-----2-|
|-----------------|-----------------|---------------------|
|-0---0---0---0---|-0---0---0---0---|-0---------0---------|

  Am7                             C
|-------------------------------|------------------------------|
|-0h1-------1-----1-------------|-----1----------1-----3---1---|
|-0-----0---------------0---0---|-----------0------------------|
|-----2-------2-------2-------2-|-----2-------2------2-------2-|
|-0-------0-------0-------0-----|-3-------3------3-------3-----|
|-------------------------------|------------------------------|

  B7                             Em
|-------------------------------|-----0-----------3-----2---0---|
|-----0-----------0-----2---4---|-----0-----0-----0-------------|
|-----------2-------------------|-------------------------------|
|-----1-------1-------1-------1-|-----2-------2-------2-------2-|
|-2-------2-------2-------2-----|-------------------------------|
|-------------------------------|-0-------0-------0-------0-----|

  Am7                             C
|-----------0-------------------|------------------------------|
|-0h1-----------1---------------|-----------1----1-----3---1---|
|-------0-------------------0---|-----0------------------------|
|-----2-------2-------2-------2-|-----2-------2------2-------2-|
|-0-------0-------0-------0-----|-3-------3------3-------3-----|
|-------------------------------|------------------------------|

  B7
|-------------------------------|
|-----0-----------0---------0---|
|-----------2-----------2-------|
|-----1-------1-------1-------1-|
|-2-------2-------2-------2-----|
|-------------------------------|

Em                               Am7
  Ich lieg' seit Tagen in meinem Bett und hab' nix zu tun
C                                           B7
  Und nach dem Aufsteh'n fang' ich an, mich auszuruh'n
Em                                   Am7
  Und ich überlege oft, ob ich dir schreibe
    C                                  B7
Und ärger' mich, weil ich immer liegen bleibe


Zwischenspiel:  Em, Am7, C, B7   2x

      Em                           Am7
Jetzt   fehlt mir so viel, was mir wegen dir gefiel
               C                                           
Ich schrei' zu Haus gegen die Wand
            B7
Und draußen stumm in mich hinein
             Em
Und manchmal denk' ich
             Am7
Und manchmal denk' ich
           C                              D
Ich müsste wieder mit dir zusammen sein

G                   Bm
  Nicht nichts ohne dich
     Em
Aber weniger, viel weniger für mich
G                   Bm
  Nicht nichts ohne dich
     Em            Bm
Aber weniger, viel weniger für mich


Zwischenspiel:  Em, Am7, C, B7   2x

Em                                Am7
  Und dann hör' ich mir die Kommentare meiner Freunde an
C                          B7
  Weil ja jeder was dazu sagen kann
     Em                      Am7
Aber eigentlich will ich das alles gar nicht hör'n
                C                   B7
Weil mich diese Ratschläge stör'n

          Em                         Am7
Und jetzt fehlt mir so viel, was mir wegen dir gefiel
               C
Ich schrei' zu Haus gegen die Wand
            B7
Und draußen stumm in mich hinein
             Em
Und manchmal denk' ich
             Am7
Und manchmal denk' ich
            C                      D
Wir müssten wieder zusammen sein

G                   Bm
  Nicht nichts ohne dich
     Em
Aber weniger, viel weniger für mich
G                   Bm
  Nicht nichts ohne dich
     Em            G
Aber weniger, viel weniger für mich



Zwischenspiel ("angelehnt" an Bass und Gitarrenakkorde)
    
         C         Cm              G
|-------|------------|-0-------------|------------|--------------|
|-------|-1----------|-1-------------|----0-------|----0---------|
|-----0-|-0h2--0-----|-0h2--0--------|----0-------|----0-------0-|
|-0-----|-2----------|-1-----------0-|----0-------|----0---0-----|
|-------|-3------3---|-3---------2---|--------3-2-|--------------|
|---3---|------------|---------------|-3----------|-3--------3---|

  C         Cm             G
|------------|-0-------------|------------|--------------|
|-1----------|-1-----------0-|----0-------|----0---------|
|-0h2--0-----|-0h2--0----2---|----0---2-0-|----0-------0-|
|-2----------|-1-------------|----0-------|----0---0-----|
|-3------3---|-3-------------|------------|--------------|
|------------|---------------|-3----------|-3--------3---|

 C         Cm              G                        
|------------|-0-------------|-3---3-3-3-3---3-3-3-|-3---3-3-3-3---3-3-3-|
|-1----------|-1-------------|-0---0-0-0-0---0-0-0-|-0---0-0-0-0---0-0-0-|
|-0h2--0-----|-0h2--0--------|-0---0-0-0-0---0-0-0-|-0---0-0-0-0---0-0-0-|
|-2----------|-1-----------0-|-0---0-0-0-0---0-0-0-|-0---0-0-0-0---0-0-0-|
|-3------3---|-3---------2---|-2---2-2-2-2---2-2-2-|-0---0-0-0-0---0-0-0-|
|------------|---------------|-3---3-3-3-3---3-3-3-|-3---3-3-3-3---3-3-3-|

  C                 Cm
|-3-3-3-3-3-3-3-3-|-3----|
|-5-5-5-5-5-5-5-5-|-4----|
|-5-5-5-5-5-5-5-5-|-5----|
|-5-5-5-5-5-5-5-5-|-5----|
|-3-3-3-3-3-3-3-3-|-3----|
|-----------------|------|

                  G
Nicht nichts ohne dich
Bm                 Em
  Aber weniger für mich
G                   Bm
  Nicht nichts ohne dich
     Em            
Aber weniger, viel weniger für mich

G                   Bm
  Nicht nichts ohne dich
     Em
Aber weniger, viel weniger für mich
G                   Bm
  Nicht nichts ohne dich

     Em         (Ab hier wieder zupfen s.o.)   
Aber weniger
              Am7                                       C
Und dann lieg' ich wieder in mei'm Bett und hab' nix zu tun
                     B7   
Und du schreibst mir, dass du nichts mehr von mir hören willst
   Em                                          Am7
Und dann denk' ich, ich hab dir nie alles gesagt
     C                   B7
Aber immerhin nicht nichts
Добавлено: 14.12.2015
Вам также может быть интересно:
Другие материалы по этой песне:
  • Аккорды и текст

Страница создана 14.12.2015
http://primanota.ru/annenmaykantereit/nicht-nichts-chords.htm
Привет, Гость.
Предлагаем пройти революционный курс по гитаре.
Подарок от PrimaNota.Ru, забирай!