PrimaNota.ru - самый крупный в мире бесплатный архив песенных текстов, аккордов, табулатур и нот


Anneke Van Giersbergen - Feel Alive - бас-таба, видео

Регистрация Запомнить меня
Войти через:  Facebook Google Twitter Vk Yandex Mail.ru

Anneke Van Giersbergen - Feel Alive - бас-таба, видео

Печатать
Просмотров: 52
Intro

G-------------|
D-------------|
A--7----------|
E----5--4--2--|

I feel your heart...

G-------------|
D-------------|
A--7----------|
E----5--4--2--|

I see your smile...

----------------|
----------------|
--------4--2----|
--5--4--------2-|

again...

G-------------|
D-------------|
A--7----------|
E----5--4--2--|

I feel alive...

G--------------------|
D--------------------|
A--------2-----------|
E--5--0-----5--5--0--|

G--------------------|
D--------------------|
A--------2-----------|
E--5--0-----5--5--2--|

solo

G-------------|
D-------------|
A--7----------|
E----5--4--2--|

I'm holding on...

G-------------|
D-------------|
A--7----------|
E----5--4--2--|

I feel alive... (x2)

G-----------------|
D-----------------|
A--------4--2-----|
E--5--2--------2--|

till now.
Добавлено: 31.12.2015
Другие материалы по этой песне:
  • Аккорды и текст

Страница создана 31.12.2015
http://primanota.ru/anneke-van-giersbergen/feel-alive-chords.htm
Привет, Гость.
Предлагаем пройти революционный курс по гитаре.
Подарок от PrimaNota.Ru, забирай!