PrimaNota.ru - самый крупный в мире бесплатный архив песенных текстов, аккордов, табулатур и нот


Anne Murray - Other Side - аккорды и текст, видео

Регистрация Запомнить меня
Войти через:  Facebook Google Twitter Vk Yandex Mail.ru

Anne Murray - Other Side - аккорды и текст, видео

Печатать
Просмотров: 157
Уроки эстрадного вокала в Санкт-Петербурге
Other Side
Anne Murray
Intro: Just pick around the A, D and E Chords

Walking Bass Line:
E|----------------------------------------------
B|----------------------------------------------
G|----------------------------------------------
D|----------------------------------------------
A|--11--12--12----12--11----9----7----5~--4~--0~
E|----------------------------------------------


You can pick around the chords for the piano bit or strum:


A                      E               A
Through each life time - run rivers to cross

A                   E                    F#m
What if there's no life line and you're sinking or lost

D
Just believe in your direction

F#m             
Let your heart explore

D                         A
Cause you can't reach new horizons

E
Standing on the shore


Electric Guitar:
E|--------------------
B|--10b11b10--7----5--
G|--9-----------------
D|--------------------
A|--------------------
E|--------------------


A                   E            A
There are mountains - we need to climb

A                          E          F#m
But the mountains standing in the way are only in our minds

D                                    F#m
And the risk of going nowhere is the greatest risk of all

D                     A          
So just listen to the voice that says

E
I'll catch you if you fall

E|--------0-----------0--
B|-----------------0--0--
G|-----1--------1-----1--
D|--2--------2-----------
A|-----------------------
E|-----------------------

A                    E        A
On the other side of doubt is faith          
                                           (Electric Guitar:)
A                    E         A           E|------------------ X2
On the other side of pain lies strength    B|--14--12--15--14--
                                           G|------------------
D                                          D|------------------
The journey may seem endless               A|------------------
                                           E|------------------
F#m                        D
When you know the road is rough
 
A                        E       A
But on the other side of fear... is love



A                    E        A
For such a long time I put my dreams aside

A                        E            
The tides of change felt dangerous

F#m
The mountains seemed too high

D
But my dreams were slowly fading

F#m
As time went quickly by

D                       A
So I took a breath with every step

E
Never knowing I would find...


E|--------0-----------0--
B|-----------------0--0--
G|-----1--------1-----1--
D|--2--------2-----------
A|-----------------------
E|-----------------------


A                    E        A
On the other side of doubt is faith          
                                           (Electric Guitar:)
A                    E         A           E|------------------ X2
On the other side of pain lies strength    B|--14--12--15--14--
                                           G|------------------
D                                          D|------------------
The journey may seem endless               A|------------------
                                           E|------------------
F#m                        D
When you know the road is rough

A                        E       A
But on the other side of fear... is love


Electric Guitar:
E|-----------------------------
B|--------------------12-10~---
G|---------------9h11----------
D|--9h11--11h14----------------
A|-----------------------------
E|-----------------------------


A                    E        A
On the other side of doubt is faith          
                                           (Electric Guitar:)
A                    E         A           E|------------------ X2
On the other side of pain lies strength    B|--14--12--15--14--
                                           G|------------------
D                                          D|------------------
The journey may seem endless               A|------------------
                                           E|------------------
F#m                        D
When you know the road is rough

A                        E  A E D
But on the other side of fear... is love

Electric Guitar: (between "of fear..." and "is love")
E|----------14--10--14--10----------------------------------
B|--10--14----------------------10--12--14--12--10------10--
G|--------------------------------------------------11------
D|----------------------------------------------------------
A|----------------------------------------------------------
E|----------------------------------------------------------

A                        E       A
But on the other side of fear... is love

Walking Bass Line:
E|----------------------------------------------
B|----------------------------------------------
G|----------------------------------------------
D|----------------------------------------------
A|--11--12--12----12--11----9----7----5~--4~--0~
E|----------------------------------------------
Добавлено: 10.12.2015
Другие материалы по этой песне:
  • Аккорды и текст

Страница создана 05.05.2012
http://primanota.ru/anne-murray/other-side-chords.htm
Привет, Гость.
Предлагаем пройти революционный курс по гитаре.
Подарок от PrimaNota.Ru, забирай!