PrimaNota.ru - самый крупный в мире бесплатный архив песенных текстов, аккордов, табулатур и нот


Annabel - Anti-decisions - бас-таба, видео

Регистрация Запомнить меня
Войти через:  Facebook Google Twitter Vk Yandex Mail.ru

Annabel - Anti-decisions - бас-таба, видео

Печатать
Просмотров: 40
Уроки эстрадного вокала в Санкт-Петербурге
Tabbed by: Joshua Garcia (joshuag523@aol.com)

Tabs for the song: Anti-Decisions by Annabel
Please rate and let me know if you have any corrections. Thank you.


Tuning: Standard (E A D G)


Intro
G||-----------------------------------|-------------------------6--4~--|
D||-----------------------------------|--------------------------------|
A||-----------------------------------|--------------------------------|
E||--0-0-0-0-0-0----0--0----0--0-0-0--|--0-0-0-0-0-0----0--0-----------|


G||-----------------------------------|----------------------|
D||-----------------------------------|----------------------|
A||-----------------------------------|----------------------|
E||--0-0-0-0-0-0----0--0----0--0-0-0--|--0-0-0-0-0-0----0~---|



Verse
G||--------------4---6---4-----------6--6-6-6-6-4---2--2-2-2-2-4----|
D||--2-----2-4/6---6---------6---2----------------4--------------4--|
A||------4----------------------------------------------------------|
E||-----------------------------------------------------------------|


G||--------------4---6---4----------------------------------------|
D||--2-----2-4/6---6---------6~-----------------2-----------------|
A||------4---------------------------4--4-4-4-4-----0--0-0-0-0-2--| x2
E||---------------------------------------------------------------|



Pre-Chorus
G||----------------------------------------------------------------|
D||----------------------------------------------------------------|
A||----------------------------------------------------------------|
E||--0---0-0-0-2-5----0---0-0-0-2-5----0---0-0-0-2-5----0---0-0-0--|



Chorus
G||-------------------------------------------------------------------|
D||-------------------------------------------------------------------|
A||-------------------------------------------------------------------|
E||--5---5-5-5-5-5-0-4---4-4-4-4-4-0-2---2-2-2-2-2-0-0---0-0-0-0-0-0--|


G||-------------------------------------------------------------------|
D||-------------------------------------------------------------------|
A||-------------------------------------------------------------------|
E||--5---5-5-5-5-5-0-4---4-4-4-4-4-0-2---2-2-2-2-2-0-0---0-0-0-0-2-4--|


G||-------------------------------------------------------------------|
D||-------------------------------------------------------------------|
A||-------------------------------------------------------------------|
E||--5---5-5-5-5-5-0-4---4-4-4-4-4-0-2---2-2-2-2-2-0-0---0-0-0-0-2-4--|


G||-------------------------------------------------------------------|
D||-------------------------------------------------------------------|
A||-------------------------------------------------------------------|
E||--5---5-5-5-5-5-0-4---4-4-4-4-4-0-2---2-2-2-2-2-0-0---0-0---0---0--|



Bridge
G||----------------------------|----------------------------|
D||----------------------------|----------------------------|
A||----------------------------|----------------------------|
E||--0~------------5~------0~--|--0~------------5~------0~--|


G||------------------------------------|------------------------------------|
D||-----------------------7~------7\2--|-----------------------7~------7\2--|
A||--2h4~------7~-------7--------------|--2h4~------7~-------7--------------|
E||------------------------------------|------------------------------------|



Interlude
G||--14----16-14-13---------11----13-11-9--|
D||--------------------9h11----------------|
A||----------------------------------------|
E||----------------------------------------|


G||-------9h11-14----11-14-13---------11----13-11-9--|
D||--9h11------------------------9h11----------------|
A||--------------------------------------------------|
E||--------------------------------------------------|


G||-------9h11-14----11-14-13---------11----13-11-9--|
D||--9h11------------------------9h11----------------|
A||--------------------------------------------------|
E||--------------------------------------------------|


G||-------9h11-14----------13---------11----13-11-9--|
D||--9h11------------------------9h11----------------|
A||--------------------------------------------------|
E||--------------------------------------------------|



Chorus
G||-------------------------------------------------------------------|
D||-------------------------------------------------------------------|
A||-------------------------------------------------------------------|
E||--5---5-5-5-5-5-0-4---4-4-4-4-4-0-2---2-2-2-2-2-0-0---0-0-0-0-2-4--|


G||-------------------------------------------------------------------|
D||-------------------------------------------------------------------|
A||-------------------------------------------------------------------|
E||--5---5-5-5-5-5-0-4---4-4-4-4-4-0-2---2-2-2-2-2-0-0---0-0-0-0-0-0--|


G||-------------------------------------------------------------------|
D||-------------------------------------------------------------------|
A||-------------------------------------------------------------------|
E||--5---5-5-5-5-5-0-4---4-4-4-4-4-0-2---2-2-2-2-2-0-0---0-0-0-0-2-4--|


G||-------------------------------------------------------------------|
D||-------------------------------------------------------------------|
A||-------------------------------------------------------------------|
E||--5---5-5-5-5-5-0-4---4-4-4-4-4-0-2---2-2-2-2-2-0-0---0-0-0-0-0-0--|



Outro
G||--------------------------------------------16---------------------------------------------|
D||----------------------14-16-18~-------16h18------18-16-18-16-14----14---14-14-14-14--------|
A||--(/)16---14-12-14-16-------------------------------------------16------------------16-14--| x3
E||-------------------------------------------------------------------------------------------|


G||-----------------------------------------16--------------------------|
D||-------------------14-16-18~-------16h18------18-16-18-16-14----14~--|
A||--16---14-12-14-16-------------------------------------------16------|
E||---------------------------------------------------------------------|




Tablature Legend
----------------
 h   hammer-on
 p   pull-off
 b   bend
 pb  pre-bend
 r   release bend
 ~   hold / vibrato
 .   palm mute
 /   slide up
 \   slide down
 *   pinch harmonic
 '   natural harmonic
 x   mute note
 T   tap
Добавлено: 17.10.2015
Другие материалы по этой песне:
  • Аккорды и текст

Страница создана 17.10.2015
http://primanota.ru/annabel/anti-decisions-chords.htm
Привет, Гость.
Предлагаем пройти революционный курс по гитаре.
Подарок от PrimaNota.Ru, забирай!